Song name
# A B C D E F G H I J K L M N O P Q R S T U V W X Y Z

Pothead - Valley Of Fire tab

Vally of Fire Tab by Pothead, www.Ultimate-Guitar.Com

INTRO:
e|------------------|
B|------------------|
G|------------------|
D|-10--9--7-----7---|   8x
A|--8--7--5--5------|
E|------------------|

Verse 1
e|------------------|
B|------------------|
G|------------------|
D|------------------|   8 x gedämpft
A|--8--7--5--555----|
E|------------------|

e|------------------|
B|------------------|
G|------------------|
D|-10--9--7-----7---|   8x
A|--8--7--5--5------|
E|------------------|

Ref
e|------------------|
B|------------------|
G|------------------|
D|-10--9--5-----9-7-|   4x
A|--8--7--3-----7-5-|
E|------------------|

e|------------------|
B|------------------|
G|------------------|
D|-10--9--7-----7---|   4x
A|--8--7--5--5------|
E|------------------|


Verse 2
e|------------------|
B|------------------|
G|------------------|
D|------------------|   8 x gedämpft
A|--8--7--5--555----|
E|------------------|
Ref
e|------------------|
B|------------------|
G|------------------|
D|-10--9--5-----9-7-|   4x
A|--8--7--3-----7-5-|
E|------------------|

Solo 
(I cant play solo, so play rhytm )
e|------------------|
B|------------------|
G|------------------|
D|-10--9--7-----7---|   8x
A|--8--7--5--5------|
E|------------------|

Ref
e|------------------|
B|------------------|
G|------------------|
D|-10--9--5-----9-7-|   4x
A|--8--7--3-----7-5-|
E|------------------|
Outro
e|------------------|
B|------------------|
G|------------------|
D|-10--9--7-----7---|   8x
A|--8--7--5--5------|
E|------------------|
Tap to rate this tab
# A B C D E F G H I J K L M N O P Q R S T U V W X Y Z