Song name
# A B C D E F G H I J K L M N O P Q R S T U V W X Y Z

Presidents Of The Usa - Basketball Dream tab

Help us improve GuitareTab! Take a short survey!
this is a little hidden thing at the end of PUSAs second album
the little kid talking is Chris Ballews nephew

--2--2---------------------------|
---3--3-2------------------------|
----2--2-------------------------|
-0-------------------------------|
---------------------------------|
---------------------------------|

another guitar does this
after each one of those/\/\/\
---------------------------------|
-11------------------------------|
-11------------------------------|
---------------------------------|
---------------------------------|
---------------------------------|

had a dream
magic johson was there
he autographed the ball
small rubber ball
ten feet tall
bi, big puffy shoes
are the cameras on?
(louder)are the cameras on?
set the ball down
went to the court
shot a swish
we all laughed
went back to the spot
magic was gone
same old ball
time to go home.
Related for Basketball Dream tab