Guitaretab - guitar tabs
Song name
# A B C D E F G H I J K L M N O P Q R S T U V W X Y Z

Presidents Of The Usa - Kitty tab

e |---------------------------------------------------------
B |---------------------------------------------------------
G |--6-6-6-6--6-x----------4------4-4-4-4--4-x----------6---
D |--6-6-6-6--6-x--4-4-4-4-4------4-4-4-4--4-x--4-4-4-4-6---
A |--4-4-4-4--4-x--4-4-4-4-2------2-2-2-2--2-x--4-4-4-4-4---
E |----------------4-4-4-4----------------------4-4-4-4-----

this riff is played 4 times as an intro,and played as a chorus and some kind of bridge

e |----------------------|
B |----------------------|
G |----------------------|
D |----------------------|
A |-------2--------------|
E |--0-------1-1-1--3----|
[ Tab from: ]
Related for Kitty tab