Song name
# A B C D E F G H I J K L M N O P Q R S T U V W X Y Z

Pretty Maids - Please Dont Leave Me tab

#----------------------------------PLEASE NOTE---------------------------------#
#This file is the author's own work and represents their interpretation of the #
#song. You may only use this file for private study, scholarship, or research. #
#------------------------------------------------------------------------------#

PLEASE DON'T LEAVE ME
As recorded by Pretty Maids
(From the 1990 Album SIN-DECADE)

Transcribed by Nobukazu Nagayama
	

Words and Music by Phil Lynott & John Sykes
Arranged by Pretty Maids

Gtr I (E A D G B E) - 'Lead1'
Gtr II (E A D G B E) - 'Lead2'
Gtr III (E A D G B E) - 'Clean'

 Intro 1
  Q=120
                   $
                      A                          B
 4/4
  Gtr I
                                                            |-3--|
  Q    q   q    q      H.          +E   +S   S    H     +E  S  S S  E E
|------------------||--------------------------|-------------------------|
|---------/9--/10--||-10b12=======(10)-(10)rp9-|-10----(10)-9h10p9----9--|
|-----/9-----------||--------------------------|-------------------11----|
|------------------||--------------------------|-------------------------|
|------------------||--------------------------|-------------------------|
|------------------||--------------------------|-------------------------|
|
| Gtr II
|                                                           |-3--|
| Q    q   q    q      H.          +E   +S   S    H      E  S  S S  E E
|------------------||--------------------------|-------------------------|
|------------------||--------------------------|-------------------------|
|---------/9--/11--||-11b13=======(14)-(14)rp9-|-11-----11--9h11p9--8-9--|
|----/11-----------||--------------------------|-------------------------|
|------------------||--------------------------|-------------------------|
|------------------||--------------------------|-------------------------|


  G#m                   C#m              F#m
   H.       E  +E        Q  H     E  E   H.      E +E
|---------------------|----------------|------------------|
|-10-------10-(10)b12-|-10--9----------|-9-------9-(9)b10-|
|---------------------|-----------9-11-|------------------|
|---------------------|----------------|------------------|
|---------------------|----------------|------------------|
|---------------------|----------------|------------------|
|
|  H.       E  +E        Q  H     E  E   H.      E  E
|---------------------|----------------|------------------|
|---------------------|----------------|------------------|
|-11-------11-(11)b13-|-11--9--------8-|-9-------9--9b11--|
|---------------------|----------11----|------------------|
|---------------------|----------------|------------------|
|---------------------|----------------|------------------|


  B                 C#m
  Q  E S S  Q  Q     W           +Q      q   q    q
|-----------------|-----------|----------------------||
|-9--7h9p7--------|-----------|-------------/9--/10--||
|-----------9--8--|--9--------|--(9)\---/9-----------||
|-----------------|-----------|----------------------||
|-----------------|-----------|----------------------||
|-----------------|-----------|----------------------||
|
| Q  E S S  Q  Q     W           +Q      q   q    q
|-----------------|-----------|----------------------||
|-----------------|-----------|----------------------||
|-9--8h9p8--------|-----------|-------------/9--/11--||
|----------11--9--|-11--------|-(11)\--/11-----------||
|-----------------|-----------|----------------------||
|-----------------|-----------|----------------------||


  A                  B                        G#m
                                |-3--|
   H.         E  E    H     +E  S  S S  E E    H.       E  +E
|----------------9-|------------------------|---------------------|
|-10b12------12----|-10----(10)-9h10p9----9-|-10-------10-(10)b12-|
|------------------|-------------------11---|---------------------|
|------------------|------------------------|---------------------|
|------------------|------------------------|---------------------|
|------------------|------------------------|---------------------|
|
|                               |-3--|
|  H.         E  E    H     +E  S  S S  E E    H.       E  +E
|------------------|------------------------|---------------------|
|-------------9-10-|------------------------|---------------------|
|-11b13------------|-11----(11)-9h11p9--8-9-|-11-------11-(11)b13-|
|------------------|------------------------|---------------------|
|------------------|------------------------|---------------------|
|------------------|------------------------|---------------------|


                                            To Coda
  C#m              F#m                B
   Q  H     E  E   H.      E +E       Q  E S S  Q  Q
|----------------|------------------|-----------------|
|-10--9----------|-9-------9-(9)b10-|-9--7h9p7--------|
|-----------9-11-|------------------|-----------9--8--|
|----------------|------------------|-----------------|
|----------------|------------------|-----------------|
|----------------|------------------|-----------------|
|
|  Q  H     E  E   H.      E  E       Q  E S S  Q  Q
|----------------|------------------|-----------------|
|----------------|------------------|-----------------|
|-11--9--------8-|-9-------9--9b11--|-9--8h9p8--------|
|----------11----|------------------|----------11--9--|
|----------------|------------------|-----------------|
|----------------|------------------|-----------------|


                                  Intro 2
  C#m                              C#m               B/C#
                                   Gtr III
   W           +H.       +Q        E E E E E E E E   E E E E E E E E
|-----------|------------------||------------------|-------------------||
|-----------|------------------||o-5-----5-----5---|-4-----4-----4----o||
|--9--------|--(9)-------(9)\--||----6-----6-----6-|---4-----4-----4---||
|-----------|------------------||------6-----6-----|-----4-----4-------||
|-----------|------------------||o-----------------|------------------o||
|-----------|------------------||------------------|-------------------||
|
|  W           +H.       +Q        W                 W
|-----------|------------------||------------------|-------------------||
|-----------|------------------||o-----------------|------------------o||
|-----------|------------------||------------------|-------------------||
|-11--------|-(11)------(11)\--||------------------|-------------------||
|-----------|------------------||o-----------------|------------------o||
|-----------|------------------||------------------|-------------------||


   Verse 1
    A                 B                 G#m               C#m
    Gtr III
    E E E E E E E E   E E E E E E E E   E E E E E E E E   E E E E E E E E
||------------0-----|-----------2-----|---------4-----4-|-----------4-----|
||o-------2-------2-|-------4-----4---|-----4-----4-----|-------5---------|
||------4-------4---|-----4---------4-|-------4-----4---|-----6-------4---|
||----2-------------|---4-------------|-----------------|---6-----------6-|
||o-0-------0-------|-2-------2-------|---6-------------|-4-------4-------|
||------------------|-----------------|-4---------------|-----------------|


  F#m               B                 E
  E E E E E E E E   E E E E E E E E   E E E E E E E E
|-----------2-----|-----------2-----|-------4---5p4---|
|-------------2---|-------------4---|-----5---------5-|
|-----2---2-----2-|-------4-------4-|---4-----4-------|
|-------4---------|-----4-----------|-----------------|
|---4-------------|-2-4-----2-------|-----------------|
|-2---------------|-----------------|-0---------------|


                         Verse 2
                          A
  Gtr III
  E E   E E  E E   E E     E     E E E E E   E    E
|---------4----5p==4---||----------------0--------------|
|-------5------------5-||------------2------------2-----|
|---4--------4---------||----------4---------4----------|
|----------------------||--------2----------------------|
|----------------------||--0-----------0----------------|
|-0--------------------||-------------------------------|
|
| Gtr I
| Q     q    q     q       H.               +E   +S   S
|----------------------||-------------------------------|
|-----------/9---/10---||-10b12============(10)-(10)rp9-|
|------/9--------------||-------------------------------|
|----------------------||-------------------------------|
|----------------------||-------------------------------|
|----------------------||-------------------------------|
|
| Gtr II
| Q     q    q     q       H.               +E   +S   S
|----------------------||-------------------------------|
|----------------------||-------------------------------|
|-----------/9---/11---||-11b13============(14)-(14)rp9-|
|-----/11--------------||-------------------------------|
|----------------------||-------------------------------|
|----------------------||-------------------------------|


  B
   E E E E   E  E       E E
|---------------2-----------|
|--------4--------------4---|
|------4------------------4-|
|----4----------------------|
|--2---------2--------------|
|---------------------------|
|
|               |-3--|
|  H        +E  S  S S  E E
|---------------------------|
|-10-------(10)-9h10p9----9-|
|----------------------11---|
|---------------------------|
|---------------------------|
|---------------------------|
|
|               |-3--|
|  H         E  S  S S  E E
|---------------------------|
|---------------------------|
|-11--------11--9h11p9--8-9-|
|---------------------------|
|---------------------------|
|---------------------------|


  G#m                        C#m
   E  E E E E E  E   E        E E E E E E  E  E
|-----------4--------4-----|------------4-------|
|-------4-----4------------|--------5-----------|
|---------4------4---------|------6--------4----|
|--------------------------|----6-------------6-|
|-----6--------------------|--4-------4---------|
|--4-----------------------|--------------------|
|
|  H.            E  +E        Q   H        E  E
|--------------------------|--------------------|
|-10------------10-(10)b12-|-10---9-------------|
|--------------------------|---------------9-11-|
|--------------------------|--------------------|
|--------------------------|--------------------|
|--------------------------|--------------------|
|
|  H.            E  +E        Q   H        E  E
|--------------------------|--------------------|
|--------------------------|--------------------|
|-11------------11-(11)b13-|-11---9-----------8-|
|--------------------------|--------------11----|
|--------------------------|--------------------|
|--------------------------|--------------------|


  F#m                     B
  E  E E E E E E  E       E E E E    E E E E
|------------2----------|--------------2-----|
|--------------2--------|----------------4---|
|------2---2------2-----|-------4----------4-|
|--------4--------------|-----4--------------|
|----4------------------|-2-4--------2-------|
|-2---------------------|--------------------|
|
| H.           E +E       Q   E S S  Q   Q
|-----------------------|--------------------|
|-9------------9-(9)b10-|-9---7h9p7----------|
|-----------------------|------------9---8---|
|-----------------------|--------------------|
|-----------------------|--------------------|
|-----------------------|--------------------|
|
| H.           E  E       Q   E S S  Q   Q
|-----------------------|--------------------|
|-----------------------|--------------------|
|-9------------9--9b11--|-9---8h9p8----------|
|-----------------------|-----------11---9---|
|-----------------------|--------------------|
|-----------------------|--------------------|


  E
   E E E E E E E E     E  E E E E E E E
|--------4---5p4---|----------4---5p4---||
|------5---------5-|--------5---------5-||
|----4-----4-------|------4-----4-------||
|------------------|--------------------||
|------------------|--------------------||
|--0---------------|---0----------------||
|
|  W                  +H        H
|------------------|--------------------||
|------------------|--------------------||
|--9---------------|--(9)---------------||
|------------------|--------------------||
|------------------|--------------------||
|------------------|--------------------||
|
|  W                  +H        H
|------------------|--------------------||
|------------------|--------------------||
|------------------|--------------------||
|-11---------------|-(11)---------------||
|------------------|--------------------||
|------------------|--------------------||


 Chorus
  F#m               B                 E
  E E E E E E E E   E E E E E E E E   E E E E E E E E   E E E E E E E E
|-----------2-----|-----------2-----|-------4---5p4---|-------4---5p4----|
|---2---2-----2---|---2---4-----2---|-----5---------5-|-----5---------5--|
|-----2---2-----2-|-----4---------4-|---4-----4-------|---4-----4--------|
|-----------------|---------4-------|-----------------|------------------|
|-----------------|-2---------------|-----------------|------------------|
|-2---------------|-----------------|-0---------------|-0----------------|


  F#m               B                 C#m
  E E E E E E E E   E E E E E E E E   E E E E E E E E   E E E E E E E E
|---------4p2-----|-----------2-----|---4-------4-----|---4-------4------|
|---2---2-----2---|---2---4-----2---|-------5-----4---|-------5-----4----|
|-----2---------2-|-----4---------4-|-----6---6-----6-|-----6---6-----6--|
|-----------------|---------4-------|-----------------|------------------|
|-----------------|-2---------------|-4---------------|-4----------------|
|-2---------------|-----------------|-----------------|------------------|


  F#m               B                 E
  E E E E E E E E   E E E E E E E E   E E E E E E E E   E E E E E E E E
|-----------2-----|-----------2-----|-------4---5p4---|-------4---5p4----|
|---2---2-----2---|---2---4-----2---|-----5---------5-|-----5---------5--|
|-----2---2-----2-|-----4---------4-|---4-----4-------|---4-----4--------|
|-----------------|---------4-------|-----------------|------------------|
|-----------------|-2---------------|-----------------|------------------|
|-2---------------|-----------------|-0---------------|-0----------------|


  F#m               B                 C#m
  E E E E E E E E   E E E E E E E E   E E E E E E E E   E E E E E E E E
|---------4p2-----|-----------2-----|---4-------4-----|---4-------4-------||
|---2---2-----2---|---2---4-----2---|-------5-----4---|-------5-----4----o||
|-----2---------2-|-----4---------4-|-----6---6-----6-|-----6---6-----6---||
|-----------------|---------4-------|-----------------|-------------------||
|-----------------|-2---------------|-4---------------|-4----------------o||
|-2---------------|-----------------|-----------------|-------------------||


 Interlude
                                                               D.S. al Coda
  C#m               B/C#              C#m               B/C#
  Gtr III
  E E E E E E E E   E E E E E E E E   E E E E E E E E   E E   E E  E E   E E
|-----------------|-----------------|-----------------|-----------------------||
|-5-----5-----5---|-4-----4-----4---|-5-----5-----5---|-4-------4--------4----||
|---6-----6-----6-|---4-----4-----4-|---6-----6-----6-|---4--------4-------4--||
|-----6-----6-----|-----4-----4-----|-----6-----6-----|-------4------4--------||
|-----------------|-----------------|-----------------|-----------------------||
|-----------------|-----------------|-----------------|-----------------------||
|
| Gtr I
| W                 W                 W                 Q     q    q     q
|-----------------|-----------------|-----------------|-----------------------||
|-----------------|-----------------|-----------------|-----------/9---/10----||
|-----------------|-----------------|-----------------|------/9---/9---/11----||
|-----------------|-----------------|-----------------|-----/11---------------||
|-----------------|-----------------|-----------------|-----------------------||
|-----------------|-----------------|-----------------|-----------------------||


  &
  C#m
  Gtr I
   W            Q     q   q   q
|-----------|------------12--14--||
|-----------|-------/12----------||
|-----------|--------------------||
|-----------|--------------------||
|-----------|--------------------||
|-----------|--------------------||
|
| Gtr II
|  W           +W
|-----------|--------------------||
|-----------|--------------------||
|--9--------|--(9)---------------||
|-11--------|-(11)---------------||
|-----------|--------------------||
|-----------|--------------------||


 Guitar Solo
  A                                  B
   H           Q        +E   S   S    E  +E   Q    +Q     Q
|-14b16-------14b16====(14)-14rp12-|-14-(14)s19---(19)\-------|
|----------------------------------|--------------------------|
|----------------------------------|--------------------------|
|----------------------------------|--------------------------|
|----------------------------------|--------------------------|
|----------------------------------|--------------------------|
|
| Gtr III
|  E    E E E  E     E   E   E        E   E   E E   E   E E E
|--------------------0-------------|--------------------2-----|
|-----------2----------------2-----|------------4---------4---|
|---------4--------------4---------|----------4-------------4-|
|-------2--------------------------|------4-------------------|
|--0-----------0-------------------|--2-------------2---------|
|----------------------------------|--------------------------|


  G#m
       |--3--|
  Q    S  S  S  S  S  S  S  S  S  S  S  S  S
|--------------------------------------------|
|-----16h17p16----16-------------------------|
|--------------18----18p16----16-------------|
|--------------------------18----18-17-16-14-|
|--------------------------------------------|
|--------------------------------------------|
|
| E E  E        E     E     E     E     E
|---------------------4-----------------4----|
|------4--------------------4----------------|
|---------------4-----------------4----------|
|--------------------------------------------|
|---6----------------------------------------|
|-4------------------------------------------|


  C#m                              F#m
                      ~~~~
   S  S  S  S  E  E  +H          E  S  S  S  S  S  S  S  S  S  S  S  S  S  S
|------------------------------|---------------------------------------------|
|------------------------------|---------------------------------------------|
|------------------------------|---------------------------------------------|
|-16p14-------16-14-(14)-------|------13-14----13s14-16----14-16-18-14-16-18-|
|-------16-16------------------|---16-------16----------18-------------------|
|------------------------------|---------------------------------------------|
|
|  E     E     E  E   E  E E E   E  E     E     E     E     E     E     E
|------------------------4-----|----------------------------2----------------|
|-----------------5------------|----------------------------------2----------|
|--------------6-----------4---|----------2-----------2-----------------2----|
|--------6-------------------6-|----------------4----------------------------|
|--4------------------4--------|----4----------------------------------------|
|------------------------------|-2-------------------------------------------|


  B
   S  S  S  S  S  S  S  S  S  S  S  S  S  S  S  S
|-------------------------------------------------|
|-------------------------------------------------|
|-14-------14-16----14-16-18-14-16-18-20-16-18-20-|
|----16-18-------18-------------------------------|
|-------------------------------------------------|
|-------------------------------------------------|
|
|  E     E     E     E     E     E     E     E
|--------------------------------2----------------|
|--------2-----------4-----------------2----------|
|--------------4-----------------------------4----|
|--------------------------4----------------------|
|--2----------------------------------------------|
|-------------------------------------------------|


  C#m
                 |--3--|  |----3----|
   E  S  S  +E   S  S  S  Q    Q    Q
|---------------------------------------|
|-19-17-17-(17)-16h19p16----------------|
|------------------------18---16---18---|
|---------------------------------------|
|---------------------------------------|
|---------------------------------------|
|
|  E  E      E   E        E E    E    E
|-----4---------------------4-----------|
|----------------5---------------4------|
|------------6------------6-----------6-|
|---------------------------------------|
|--4------------------------------------|
|---------------------------------------|


   Q       S  E.    +H
|------------------------------|
|------------------------------|
|-18b21---18-18----(18)\-------|
|------------------------------|
|------------------------------|
|------------------------------|
|
|  E    E  E     E   E   E E E
|------------------------4-----|
|----------------5-------------|
|----------6---------------4---|
|-------6--------------------6-|
|--4-----------------4---------|
|------------------------------|


  F#m
   |------6-------|  |------6-------|  |------6-------|  |------6-------|
   S  S  S  S  S  S  S  S  S  S  S  S  S  S  S  S  S  S  S  S  S  S  S  S
|-------------------------------------------------------------------------|
|-21p19p17-21p19p17-19p17p16-19p17p16-17p16p14-17p16p14-16p14p12-16p14p12-|
|-------------------------------------------------------------------------|
|-------------------------------------------------------------------------|
|-------------------------------------------------------------------------|
|-------------------------------------------------------------------------|
|
|  E        E        E        E        E        E        E        E
|-----------------------------------------------2-------------------------|
|--------------------------------------------------------2----------------|
|--------------------2-----------------2--------------------------2-------|
|-----------------------------4-------------------------------------------|
|-----------4-------------------------------------------------------------|
|--2----------------------------------------------------------------------|


  B
   |------6-------|  |--------7--------| |----3----|
   S  S  S  S  S  S  S  S S  S    S S  S Q   Q     Q
|------------------------------------------------------|
|-14p12p10-14p12p10-12p10p9-12p==10p9------------------|
|-------------------------------------11p9p==8---------|
|------------------------------------------------/11---|
|------------------------------------------------------|
|------------------------------------------------------|
|
|  E        E        E         E         E E   E     E
|------------------------------------------2-----------|
|----------------------------------------------4-------|
|------------------------------4---------------------4-|
|--------------------4---------------------------------|
|--2--------4----------------------------2-------------|
|------------------------------------------------------|


  E
  ~
  H       E   E E  E    H.            Q
|--------------------|-----------------------|
|--------------------|-----------------------|
|--------------------|-11------------11b13---|
|-9-------------9----|-----------------------|
|-----------/11---11-|-----------------------|
|--------------------|-----------------------|
|
| E E E E E   E E  E    E  E E E E E  E    E
|-------4-----5p4----|---------4---5p=4------|
|-----5------------5-|-------5-------------5-|
|---4-----4----------|-----4-----4-----------|
|--------------------|-----------------------|
|--------------------|-----------------------|
|-0------------------|--0--------------------|


  F#m                      B
  ~
           |----3----|     |----3-----|   |---3----|
  H       +Q   Q   a Q     Q   Q   a  Q   Q   Q    Q
|------------------------|-----------------------------|
|------------------------|-----------------------------|
|-9-------(9)--8---8h9---|-8---------------------------|
|------------------------|-----9---9h11---9------------|
|------------------------|--------------------9---11---|
|------------------------|-----------------------------|
|
| E E E E  E E   E     E   E E   E      E E E   E    E
|----------4p2-----------|------------------2----------|
|---2---2--------2-------|---2----------4-------2------|
|-----2----------------2-|-------4-------------------4-|
|------------------------|----------------4------------|
|------------------------|-2---------------------------|
|-2----------------------|-----------------------------|


  C#m
  a  W                  +H         +H
|--------------------|-------------------------||
|--------------------|-------------------------||
|--------------------|-------------------------||
|-9h11---------------|-(11)-------(11)\--------||
|--------------------|-------------------------||
|--------------------|-------------------------||
|
|    E E E E E E E E     E  E E E   E   E E E
|------4-------4-----|------4-----------4------||
|----------5-----4---|----------5---------4----||
|--------6---6-----6-|--------6-----6-------6--||
|--------------------|-------------------------||
|----4---------------|---4---------------------||
|--------------------|-------------------------||


  F#m                         B
  H           +E  E Q          H        +E   E  Q
|---------------------------|---------------------------|
|-9b10========(9)r9-9pb10r==|==================10pb12r==|
|---------------------------|-11-------(11)-11----------|
|---------------------------|---------------------------|
|---------------------------|---------------------------|
|---------------------------|---------------------------|
|
| E     E E E  E  E E     E    E E E E   E   E  E     E
|--------------4p=2---------|----------------2----------|
|-------2---2-------2-------|----2---4----------2-------|
|---------2---------------2-|------4------------------4-|
|---------------------------|------------4--------------|
|---------------------------|--2------------------------|
|-2-------------------------|---------------------------|


  E
                               ~~
   H            +E    E E E    H        +E  E  S  +S       +S   S
|---------------------------|--------------------------------------|
|--------------------10p9---|--------------------------------------|
|-11b13========(11)r------9-|---------------9-11-(11)b13==(11)rp9--|
|---------------------------|-11-------(11)------------------------|
|---------------------------|--------------------------------------|
|---------------------------|--------------------------------------|
|
|  E     E E E   E    E E E    E E E E   E  E  E            E
|------------4--------5p4---|--------4------5p=4-------------------|
|----------5--------------5-|------5------------------------5------|
|--------4-------4----------|----4-------4-------------------------|
|---------------------------|--------------------------------------|
|---------------------------|--------------------------------------|
|--0------------------------|--0-----------------------------------|


  F#m                    B
   H.           E  S S   H        Q    +Q
|----------------------|---------------------|
|----------------------|---------12---(12)s==|
|-11------------9h11p9-|-8-------------------|
|----------------------|---------------------|
|----------------------|---------------------|
|----------------------|---------------------|
|
|  E  E E E E E E  E     E E E E  E E   E  E
|-----------4p2--------|------------2--------|
|-----2---2-----2------|---2---4--------2----|
|-------2----------2---|-----4-------------4-|
|----------------------|----------4----------|
|----------------------|-2-------------------|
|--2-------------------|---------------------|
|
|  W                     W
|----------------------|---------------------|
|----------------------|---------------------|
|----------------------|---------------------|
|----------------------|---------------------|
|----------------------|---------------------|
|----------------------|---------------------|


  C#m
  H       +E   E E E    W
|--------------------|-----------------------|
|-9-------(9)-10p9---|-----------------------|
|------------------9-|-----------------------|
|--------------------|-11--------------------|
|--------------------|-----------------------|
|--------------------|-----------------------|
|
| E E E E  E   E E E    E E   E E  E E   E E
|---4----------4-----|----4----------4-------|
|-------5--------4---|----------5--------4---|
|-----6----6-------6-|--------6----6-------6-|
|--------------------|-----------------------|
|-4------------------|--4--------------------|
|--------------------|-----------------------|
|
|                      Gtr II
| W                     Q     q    q     q
|--------------------|-----------------------|
|--------------------|------------/9---/10---|
|--------------------|-------/9---/9---/11---|
|--------------------|------/11--------------|
|--------------------|-----------------------|
|--------------------|-----------------------|


   Out-Chorus
    A                          B
    Gtr I
                                          |-3--|
     H.          +E   +S   S    H     +E  S  S S  E E
||---------------------------|------------------------|
||o-10b12=======(10)-(10)rp9-|-10----(10)-9h10p9----9-|
||---------------------------|-------------------11---|
||---------------------------|------------------------|
||o--------------------------|------------------------|
||---------------------------|------------------------|
|
|   Gtr II
|                                         |-3--|
|    H.          +E   +S   S    H      E  S  S S  E E
||---------------------------|------------------------|
||o--------------------------|------------------------|
||--11b13=======(14)-(14)rp9-|-11-----11--9h11p9--8-9-|
||---------------------------|------------------------|
||o--------------------------|------------------------|
||---------------------------|------------------------|


  G#m                   C#m              F#m                B
   H.       E  +E        Q  H     E  E   H.      E +E       Q  E S S  Q  Q
|---------------------|----------------|------------------|-----------------|
|-10-------10-(10)b12-|-10--9----------|-9-------9-(9)b10-|-9--7h9p7--------|
|---------------------|-----------9-11-|------------------|-----------9--8--|
|---------------------|----------------|------------------|-----------------|
|---------------------|----------------|------------------|-----------------|
|---------------------|----------------|------------------|-----------------|
|
|  H.       E  +E        Q  H     E  E   H.      E  E       Q  E S S  Q  Q
|---------------------|----------------|------------------|-----------------|
|---------------------|----------------|------------------|-----------------|
|-11-------11-(11)b13-|-11--9--------8-|-9-------9--9b11--|-9--8h9p8--------|
|---------------------|----------11----|------------------|----------11--9--|
|---------------------|----------------|------------------|-----------------|
|---------------------|----------------|------------------|-----------------|


  C#m
   W           +Q      q   q    q
|-----------|----------------------|
|-----------|-------------/9--/10--|
|--9--------|--(9)\---/9-----------|
|-----------|----------------------|
|-----------|----------------------|
|-----------|----------------------|
|
|  W           +Q      q   q    q
|-----------|----------------------|
|-----------|----------------------|
|-----------|-------------/9--/11--|
|-11--------|-(11)\--/11-----------|
|-----------|----------------------|
|-----------|----------------------|


  A                  B
                                |-3--|
   H.         E  E    H     +E  S  S S  E E
|----------------9-|-------------------------|
|-10b12------12----|-10----(10)-9h10p9----9--|
|------------------|-------------------11----|
|------------------|-------------------------|
|------------------|-------------------------|
|------------------|-------------------------|
|
|                               |-3--|
|  H.         E  E    H     +E  S  S S  E E
|------------------|-------------------------|
|-------------9-10-|-------------------------|
|-11b13------------|-11----(11)-9h11p9--8-9--|
|------------------|-------------------------|
|------------------|-------------------------|
|------------------|-------------------------|


  G#m                   C#m              F#m                B
   H.       E  +E        Q  H     E  E   H.      E +E       Q  E S S  Q  Q
|---------------------|----------------|------------------|-----------------|
|-10-------10-(10)b12-|-10--9----------|-9-------9-(9)b10-|-9--7h9p7--------|
|---------------------|-----------9-11-|------------------|-----------9--8--|
|---------------------|----------------|------------------|-----------------|
|---------------------|----------------|------------------|-----------------|
|---------------------|----------------|------------------|-----------------|
|
|  H.       E  +E        Q  H     E  E   H.      E  E       Q  E S S  Q  Q
|---------------------|----------------|------------------|-----------------|
|---------------------|----------------|------------------|-----------------|
|-11-------11-(11)b13-|-11--9--------8-|-9-------9--9b11--|-9--8h9p8--------|
|---------------------|----------11----|------------------|----------11--9--|
|---------------------|----------------|------------------|-----------------|
|---------------------|----------------|------------------|-----------------|


  E
   W           +Q      q   q    q
|-----------|-----------------------||
|-----------|-------------/9--/10--o||
|--9--------|--(9)\---/9------------||
|-----------|-----------------------||
|-----------|----------------------o||
|-----------|-----------------------||
|
|  W           +Q      q   q    q
|-----------|-----------------------||
|-----------|----------------------o||
|-----------|-------------/9--/11---||
|-11--------|-(11)\--/11------------||
|-----------|----------------------o||
|-----------|-----------------------||



Duration Legend
---------------
W - whole; H - half; Q - quarter; E - 8th; S - 16th; T - 32nd; X - 64th; a - acciaccatura
+ - note tied to previous; . - note dotted; .. - note double dotted
Uncapitalized letters represent notes that are staccato (1/2 duration)
Irregular groupings are notated above the duration line
Duration letters will always appear directly above the note/fret number it represents the
duration for.  Duration letters with no fret number below them represent rests.  Multi-
bar rests are notated in the form Wxn, where n is the number of bars to rest for.  Low
melody durations appear below the staff

Tablature Legend
----------------
 h   - hammer-on
 p   - pull-off
 b   - bend
 pb  - pre-bend
 r   - bend release (if no number after the r, then release immediately)
 /\  - slide into or out of (from/to "nowhere")
 s   - legato slide
 S   - shift slide
 - natural harmonic
[n]  - artificial harmonic
n(n) - tapped harmonic
 ~   - vibrato
 tr  - trill
 T   - tap
 TP  - trem. picking
 PM  - palm muting
\n/  - tremolo bar dip; n = amount to dip
 \n  - tremolo bar down
 n/  - tremolo bar up
/n\  - tremolo bar inverted dip
 =   - hold bend; also acts as connecting device for hammers/pulls
 <> - volume swell (louder/softer)
 x   - on rhythm slash represents muted slash
 o   - on rhythm slash represents single note slash

Misc Legend
-----------
 |  - bar
||  - double bar
||o - repeat start
o|| - repeat end
*|  - double bar (ending)
 :  - bar (freetime)
 $  - Segno
 &  - Coda
Tempo markers -  = BPM(8/16=s8/s16), where s8 = swing 8ths, s16 = swing 16ths

Tap to rate this tab
 
# A B C D E F G H I J K L M N O P Q R S T U V W X Y Z