Song name
# A B C D E F G H I J K L M N O P Q R S T U V W X Y Z

Pride And Glory - Cry Me A River tab

-------------------------------------------------------------------------------
		   Cry Me a River - Pride and glory
-------------------------------------------------------------------------------
Tabbed by:firecat698
Email:

Tuning:standard

e|-7--------------12---------------7-----------------------------------------|
B|---10--------------15--------------10--------------------------------------|
G|-------9b-7-------------14b-12---------9b-7-----7----------7-----------7---|
D|---------------------------------------------9---------7h9---------7h9-----|
A|--------------------------------------------------7h9----------7h9---------|
E|---------------------------------------------------------------------------|

e|-----------------------12--------------14----------------14----------------|
B|-----------10------------15--------------17----------------17-14-----------|
G|-------7-9b----9br7--------14b12-----------16b14----14-----------16b-------|
D|----7h9-------------------------------------------16-----------------------|
A|---------------------------------------------------------------------------|
E|---------------------------------------------------------------------------|

e|-14----------14----------14------------------------------------------------|
B|---17p14-------17p14--------17p14--------------------------------------7---|
G|---------16b---------16b---------16br14----14---/12--/11--/9--/7--9/11-----|
D|----------------------------------------16---------------------------------|
A|---------------------------------------------------------------------------|
E|---------------------------------------------------------------------------|

e|-------------------------------------------------------17-17-17/19-17-15--|
B|------7-------7------(7-10)tr--(12-15)tr--(15-17)tr--17b------------------|
G|-9/11---9/11----9b7-------------------------------------------------------|
D|--------------------------------------------------------------------------|
A|--------------------------------------------------------------------------|
E|--------------------------------------------------------------------------|

e|-----------15p14----------15p14-------------------------------------------|
B|-17br--15-------15-------------15-------------------------------15h17p15--|
G|------------------14/12----------14/12---------------------14h16----------|
D|-----------------------16-------------16-------12-12-14/16----------------|
A|------------------------------------------12h14---------------------------|
E|--------------------------------------------------------------------------|

e|-13p10------13b-13b-13p10-----13b--13p10--12--10--------7-10-7-----10-7----|
B|------13-10--------------13-10----------12--12--12p10---------10-7---------|
G|-----------------------------------------------------11--------------------|
D|---------------------------------------------------------------------------|
A|---------------------------------------------------------------------------|
E|---------------------------------------------------------------------------|

e|-----10-7----10-7---------------------------------------------------------|
B|-10-7----10-7----10-7-----------------------------------------------------|
G|----------------------9p7-9p7-----------------------------9p79p7-9br-7----|
D|-----------------------------9p7-9p7---------------9p7-9p7----------------|
A|------------------------------------9p7-9p7-9p7-9p7-----------------------|
E|--------------------------------------------------------------------------|



************************************

| /   slide up
| \   slide down
| h   hammer-on
| p   pull-off
| ~   vibrato
| +   harmonic
| x   Mute note
| b   Bend
| pb  Pre-bend
| br  Bend release
| pbr Pre-bend release
| brb Bend release bend

************************************
Tap to rate this tab
 
# A B C D E F G H I J K L M N O P Q R S T U V W X Y Z