Song name
# A B C D E F G H I J K L M N O P Q R S T U V W X Y Z

Prince Royce - Addicted tab

Hey all, this is my version of Prince Royce's Addicted. Hope it works for you.
The picking pattern might not be exactly the same, but just listen to him play it and do 
your own version or stick with mine.

Chords (I don't know all the names of them but here's the fingerings)
A E
e| 0  X  X  0  5  4   9   2  0  5   2
B| 2  3  5  3  3  5  10   3  0  5   2
G| 2  2  4  2  2  4   9   2  1  7   2
D| 2  2  4  0  0  6  11   4  2  7   4
A| 0  2  4  X  X  4   9   2  2  5   4
E| X  X  X  X  X  X   X   X  0  X   2

Intro
-----------------------------------0---------------5-------5-----------|
--2-------2-------3-------5-----------3---------3----3------3----------|
-----2------2-------2-------4-----------2-----2--------2------2--------|
--------2-------------2-------4----0-------0--------------------0------|
--0---------------2-------4--------------------------------------------|
-----------------------------------------------------------------------|

-----------------------------------0---------------5--------5-----------|
--2-------2-------3-------5-----------3---------3----3-------3----------|
-----2------2-------2-------4-----------2-----2--------2-------2--------|
--------2-------------2-------4----0-------0-------------0-------0------|
--0---------------2-------4---------------------------------------------|
------------------------------------------------------------------------|

VERSE: Sleeping in, Sunday Morning. . .
-----------------------------------0---------------5-------5-----------|
--2-------2-------3-------5-----------3---------3----3------3----------|
-----2------2-------2-------4-----------2-----2--------2------2--------|
--------2-------------2-------4----0-------0--------------------0------|
--0---------------2-------4--------------------------------------------|
-----------------------------------------------------------------------|

playing fake, we're awake. . .
-----------------------------------0---------------5--------5-----------|
--2-------2-------3-------5-----------3---------3----3-------3----------|
-----2------2-------2-------4-----------2-----2--------2-------2--------|
--------2-------------2-------4----0-------0-------------0-------0------|
--0---------------2-------4---------------------------------------------|
------------------------------------------------------------------------|





 I saved a place in my chest...
------------------------------------------------------------------------|
--5------5-------9h10---------10-----------3-------3--------------------|
-----4-----4----------9------------9----------2-------2-----------------|
-------6----------------11-----------11---------4-----------------------|
--4--------------9------------9------------2----------------------------|
------------------------------------------------------------------------|

for you to rest your head. . . on me.
----------------------------------------------------------------------0--------|
---0-----5------2--------2---------5-----5----3--------3-------------0---------|
---1-----7------4--4-------4-------7-----4----2--2-------2---------------1-----|
----------------------2----------------------------4-------------2-------------|
---2-----5-------------------------5-----4----2--------------------------------|
----------------2---------------------------------------------0----------------|

A part of me is a mess. . .
------------------------------------------------------------------------|
--5------5-------9h10---------10-----------3-------3--------------------|
-----4-----4----------9------------9----------2-------2-----------------|
-------6----------------11-----------11---------4-----------------------|
--4--------------9------------9------------2----------------------------|
------------------------------------------------------------------------|

I must confess. . . it's time to come clean. . .
----------------------------------------------------------------------0--------|
---0-----5------2--------2---------5-----5----3--------3-------------0---------|
---1-----7------4--4-------4-------7-----4----2--2-------2---------------1-----|
----------------------2----------------------------4-------------2-------------|
---2-----5-------------------------5-----4----2--------------------------------|
----------------2---------------------------------------------0----------------|

 CHORUS: I am addicted. . .
-----------------------------------0---------------5-------5-----------|
--2-------2-------3-------5-----------3---------3----3------3----------|
-----2------2-------2-------4-----------2-----2--------2------2--------|
--------2-------------2-------4----0-------0--------------------0------|
--0---------------2-------4--------------------------------------------|
-----------------------------------------------------------------------|

No other woman's. . .
-----------------------------------0---------------5--------5-----------|
--2-------2-------3-------5-----------3---------3----3-------3----------|
-----2------2-------2-------4-----------2-----2--------2-------2--------|
--------2-------------2-------4----0-------0-------------0-------0------|
--0---------------2-------4---------------------------------------------|
------------------------------------------------------------------------|

I cannot resist. . .
----------------------------------------------------------------------------|
--3--------3---------3----------3-------------0----------0------------------|
------2-------2----------2----------2-------------1---------1---------------|
--------4-------4-----------4----------4-------------2----------------------|
--2------------------2-----------2-------------2----------------------------|
----------------------------------------------------------------------------|

A single servings. . . addicted to your touch
----------------------------------------------------------------------0--------|
---0-----5------2--------2---------5-----5----3--------3-------------0---------|
---1-----7------4--4-------4-------7-----4----2--2-------2---------------1-----|
----------------------2----------------------------4-------------2-------------|
---2-----5-------------------------5-----4----2--------------------------------|
----------------2---------------------------------------------0----------------|

Repeat all parts as necessary. I don't have tabs for the Bridge (I want you lips, I want 
your arms. . .) because I didn't like that part. This is my first tab so go easy on the 
criticisms. :)
Tap to rate this tab
# A B C D E F G H I J K L M N O P Q R S T U V W X Y Z