Song name
# A B C D E F G H I J K L M N O P Q R S T U V W X Y Z

Prodigy - Breathe tab

this is how i hear it!


|--------------------------------|
|--------------------------------|
|--------------------------------|
|--------------------------------|
|--------------------------------|
|1-1-1-1-4-1-4-3-1-3-0-0-0-0-0-0-|

at he end of the riff do a double strike.

|----------|
|----------|
|----------|
|8--7-6-1--|
|8--7-6-1--|
|8--7-6-1--|

i cant quite work out the strummy bt but i believe it to be somthing like this.

|----------------------|
|6-6-6/6-6-6-6-6-6-6-6-|
|6-6-6/6-6-5-5-4-4-5-4-|
|----------------------|
|----------------------|
|----------------------|

thejazzman3@hotmail.com if u want to complain! ;)
Tap to rate this tab
# A B C D E F G H I J K L M N O P Q R S T U V W X Y Z