Guitaretab - guitar tabs
Song name
# A B C D E F G H I J K L M N O P Q R S T U V W X Y Z

Prodigy - One Love tab

THE WEIRD "WHY-YAHH'' VOCAL IS WITH THIS
[ Tab from: http://www.guitaretab.com/p/prodigy/134926.html ]
e|-18--16--16---16---16-----16----16-----18--16--16--|
B|-19--19--19---19---19-----19----19-----19--19--19--|
G|-18--18--18---18---18-----18----18-----18--18--18--|
D|---------------------------------------------------|
A|---------------------------------------------------|
E|---------------------------------------------------|

e|--16--16-----16---16----|
B|--19--17-----17---17----|
G|--18--18-----18---18----|
D|------------------------|
A|------------------------|
E|------------------------|


THIS IS ALL THATS PLAYED THORUGH THE TRACK, LISTEN TO CD FOR TIMING AND RHYTHM
Related for One Love tab