Song name
# A B C D E F G H I J K L M N O P Q R S T U V W X Y Z

Prodigy - Poison tab

HE BASSLINE AFTER ALL THE TALKING

e|-----5------------5--------5----------5--5----|
B|----------------------------------------------|
G|-3--------3---3--------3-------3---3----------|
D|----------------------------------------------|
A|----------------------------------------------|
E|----------------------------------------------|

" I GOT THE POISON''

e|-----------------------------------|
B|-----------------------------------|
G|-----------------------------------|
D|-----------------------------------|
A|--8---------8-------8----8-----8---|
E|--6---------6-------6----6-----6---|
Tap to rate this tab
 
# A B C D E F G H I J K L M N O P Q R S T U V W X Y Z