Song name
# A B C D E F G H I J K L M N O P Q R S T U V W X Y Z

Propagandhi - This Is Your Life tab

Artist: Propagandhi
Album: Supporting Caste
Song: "This Is Your Life"

Tuning: Drop Db (Db Ab Db Gb Bb Eb)

(You're not really mad.../No one really laughs...)
Eb|---------------------------------------------------|
Bb|---------------------------------------------------|
Gb|-8-8-8-8---------8-8-8-8-----------8-8-8-8---------|
Db|-8-8-8-8-5-5-5-5-8-8-8-8-5-5-3/5-5-8-8-8-8-5-5-5-5-|
Ab|-6-6-6-6-5-5-5-5-6-6-6-6-5-5-3/5-5-6-6-6-6-5-5-5-5-|
Db|---------5-5-5-5---------5-5-3/5-5---------5-5-5-5-|

(Clicking your remote.../You think you tell it...)
Eb|---------------------------------------------------------------|
Bb|---------------------------------------------------------------|
Gb|-7--6--7--4--4--6--7--6--7--4--4--6--7--6--7--4--4--6----------|
Db|-7--6--7--4--4--6--7--6--7--4--4--6--7--6--7--4--4--6--5-5-5-5-|
Ab|-5--4--5--2--2--4--5--4--5--2--2--4--5--4--5--2--2--4--5-5-5-5-|
Db|-------------------------------------------------------5-5-5-5-|

(Where you can't stand.../You just sit there...)
Eb|-----------------------------------------------------------|
Bb|-----------------------------------------------------------|
Gb|-7-6-8-7--------7-6-8-7--------7-6-8-7-------7-6-8-7-------|
Db|-7-6-8-7--------7-6-8-7--------7-6-8-7-------7-6-8-7-------|
Ab|-5-4-6-5-4/5/4/-5-4-6-5-4/5/4/-5-4-6-5-4/5/4-5-4-6-5-4/5/4-|
Db|-----------------------------------------------------------|

(Play all three parts again)

(This is your life.)
---------------|REPEAT FOUR TIMES-||
Eb|--------------------------------|
Bb|--------------------------------|
Gb|-6--4---------------------------|
Db|-6--4--5--3--0-00000000-1-2-3-4-|
Ab|-4--2--5--3--0-00000000-1-2-3-4-|
Db|-------5--3--0-00000000-1-2-3-4-|
------------------...pm...---------|

(You do it to yourself...)
Eb|-----------------------------------------------------------|
Bb|-----------------------------------------------------------|
Gb|-7-6-8-7--------7-6-8-7--------7-6-8-7-------7-6-8-7-------|
Db|-7-6-8-7--------7-6-8-7--------7-6-8-7-------7-6-8-7-------|
Ab|-5-4-6-5-4/5/4/-5-4-6-5-4/5/4/-5-4-6-5-4/5/4-5-4-6-5-4/5/4-|
Db|-----------------------------------------------------------|

(This is your life.)
Eb|--------------|
Bb|--------------|
Gb|-6-4----------|
Db|-6-4--5--3--0-|
Ab|-4-2--5--3--0-|
Db|------5--3--0-|


DONE.
Tap to rate this tab
 
# A B C D E F G H I J K L M N O P Q R S T U V W X Y Z