Song name
# A B C D E F G H I J K L M N O P Q R S T U V W X Y Z

Propagandhi - Propagandhi - Purina Hall Of Fame tab

Tabbed by: Derek Lapp - sixshot@tfcentral.net


Propagandhi - Purina Hall of Fame

*Warning:  This song is not for beginners!!!!!!*


x = plam mute
/ = let ring
+ = slide
~ = hammer on
& = pull off
% = bend

Intro:
E-----------------------------------------------------------------------------------
B----------------------------------9---9-0/---------------------------------999-999--
G-3---3---3----------------------9---9--0/--3-x-3-x-3-------------666-13-66-999-999--
D-4---4---4-4+6+7-4+6+7-444-444-7---6-------4-x-4-x-4-4+6+7-4+6+7-777-14-77-777-666-2/
A-4-x-4-x-4-------------444-444-------------4-x-4-x-4-------------777-12-77---------2/
E-2-x-2-x-2-------------222-222-------------2-x-2-x-2-------------555-12-55---------0/

Verse

E-----------------------------------------------------------------------------
B--------------------------------9999/----------------------------------9999/-
G-3---3---3----------------------9999/--3-x-3-x-3-------------666-13-66-9999/-
D-4---4---4-4+6+7-4+6+7-444-444--7776/--4-x-4-x-4-4+6+7-4+6+7-777-14-77-7776/-
A-4-x-4-x-4-------------444-444---------4-x-4-x-4-------------777-14-77-------
E-2-x-2-x-2-------------222-222---------2-x-2-x-2-------------555-12-55-------  repeat all

E--------------------
B----7/-9/-11/-------
G-6/-7/-9/-11/-11/-6/
D-6/-5/-7/-9/--11/-6/
A-4/-----------9/--4/
E-------------------- pick slide


E---------------------------------------------------------------------------------0/
B----------------------------------9---9-0/-----------------------5-4---5-4-8-5-4-0/
G-3---3---3----------------------9---9--0/--3-x-3-x-3-------------6-5-2-6-5-9-6-5-2/
D-4---4---4-4+6+7-4+6+7-444-444-7---6-------4-x-4-x-4-4+6+7-4+6+7-6-5-2-6-5-9-6-5-2/
A-4-x-4-x-4-------------444-444-------------4-x-4-x-4-------------4-2-0-4-2-7-4-2-0/
E-2-x-2-x-2-------------222-222-------------2-x-2-x-2-------------------------------

...pantient. so unnatennded....
E---------
B-5/-5----
G-6/--6---
D-6/---6--   <- just play in a random order.
A-4/----4-
E---------  

E-------------------------------------------------------------------------------------
B-5------3---5/-----------5-----3---5-------------5-----3---5/----------5-------------
G-6-6-6/-4-3-6/-----------6-5-6-4-3-6-------------6-5-6-4-3-6/----------6-5-6---------
D-6-6-7/-4-4-6/-----------6-6-7-4-4-6-------------6-6-7-4-4-6/----------6-6-7--------- continued
A-4-6-7/-2-4-4/-x4+x6x7---4-6-7-2-4-4-4+6+7+6+4---4-6-7-2-4-4/-x4+x6+x7-4-6-7-x4+x6+x7 below
E---4-5/---2----------------4-5---2-----------------4-5---2---------------4-5---------

E------------------
B-------8-------3/-
G-------9-------4/-
D-------9-------4/-
A-4-~6&-7-4-~6&-2/-
E------------------

E------4----------
B----5--5-5-------
G---6-6--6--6-6-3/
D--6--------7-7-4/
A-4---------7-7-4/    <- repeat 4x
E-----------5-4-2/

E---------
B---------
G---------
D---------
A-x4+x6+x7     <- repeat 23x
E---------


*****Lead******

E--------------0/------------------------------------0/-----------------------
B-555----------0/-------------14--------555----------0/------------16/--------
G-666-6-8-11-8-2/--14-~16&-14---16%(18)-666-6-8-11-8-2/-16-~20&-16---20%(22)/-
D-666----------2/-----------------------666----------2/-----------------------   continued below
A-444-4-6-9--6-0/-----------------------444-4-6-9--6-0/-----------------------
E-----------------------------------------------------------------------------

E-17-~22&-17-~22&-17-~22&-17-~22&-17-~22&-17--22&-20&-17-~22&-20&-17-~22&-20&-17-22%(24)/  <-8x
B----------------------------------------------------------------------------------------
G----------------------------------------------------------------------------------------
D----------------------------------------------------------------------------------------
A----------------------------------------------------------------------------------------
E----------------------------------------------------------------------------------------

---------------------
---------------------
-13-12-10-8-10-12-12-
---------------------       <- repeat octaves 3x
-11-10-8--6-8--10-10-
---------------------

E-------------------------------------------------------------
B-------------------------------------------------------------
G------------------------------14--14-~15+17/-~22&------------ repeat 10x
D--------------14-~16-14-~16+17--17---------------------------
A-14-~16-14-~16-----------------------------------------------
E-------------------------------------------------------------

E-22&-20&-17-~22&-20&-17-~22&-20&-17-22%(24)/--  <- 10x -----------
B----------------------------------------------         -16--------
G----------------------------------------------         ---20%(22)/
D----------------------------------------------         -----------
A----------------------------------------------         -----------
E----------------------------------------------         -----------
Tap to rate this tab
 
# A B C D E F G H I J K L M N O P Q R S T U V W X Y Z