Song name
# A B C D E F G H I J K L M N O P Q R S T U V W X Y Z

Protest The Hero - Sequoia Throne tab

-------------------------------------------------------------------------------
			Sequoia Throne - Protest The Hero
-------------------------------------------------------------------------------
Tabbed by: FacetOfChaos
Email: abcnumber4@yahoo.com

Tuning: Half Step Down (D# G# C# F# A# D#)

If you have a questions, corrections, or anything of the sort, then leave me a comment.

0:00 - 0:03
-   t        t        t     t     t     t   t        t        t     t
D#|-------------------17--------------------------------------17-------|
A#|-17-12-15-17-12-15----12-15-------14-17--17-12-15-17-12-15----12-15-|
F#|----------------------------12-15-----------------------------------|
C#|--------------------------------------------------------------------|
G#|--------------------------------------------------------------------|
D#|--------------------------------------------------------------------|

-      t
D#|-----------------|
A#|-15-17-15-12-15\-|
F#|-----------------|
C#|-----------------|
G#|-----------------|
D#|-----------------|

0:03 - 0:10
-   t        t        t     t     t     t   t        t        t     t
D#|-------------------17--------------------------------------17-------|
A#|-17-12-15-17-12-15----12-15-------14-17--17-12-15-17-12-15----12-15-|
F#|----------------------------12-15-----------------------------------|
C#|--------------------------------------------------------------------|
G#|--------------------------------------------------------------------|
D#|--------------------------------------------------------------------|

-      t        t        t        t     t     t     t   t        t
D#|-15-17-15-12-------------------17-----------------------------------|
A#|-------------17-12-15-17-12-15----12-15-------14-17--17-12-15-17-12-|
F#|----------------------------------------12-15-----------------------|
C#|--------------------------------------------------------------------|
G#|--------------------------------------------------------------------|
D#|--------------------------------------------------------------------|

-      t     t     t
D#|----17-------15-17-15-12-15\-|
A#|-15----12-15-----------------|
F#|-----------------------------|
C#|-----------------------------|
G#|-----------------------------|
D#|-----------------------------|

0:10 - 0:24
0:28 - 0:34
D#|-------------------------------------------------------------------|
A#|-------------------------------------------------------------------|
F#|-------------------------------------------------------------------|
C#|-------------------------------------------------------------------|
G#|-----------------------------------------------------------------7-|
D#|-0-0-0-0-0-0-0-0-5-4-0-1-0-1-4-5--0-0-0-0-0-0-0-0-5-7-8-4--5-7-8---|

D#|------------------------------------------------------------|
A#|------------------------------------------------------------|
F#|------------------------------------------------------------|
C#|------------------------------------------------------3-5-7-|
G#|------------------------------------------------3-5-7-------|
D#|-0-0-0-0-0-0-0-0-5-4-0-1-0-1-4-5--0-0-0-0-3-5-6-------------|

D#|-------------------------------------------------------------------|
A#|-------------------------------------------------------------------|
F#|-------------------------------------------------------------------|
C#|-------------------------------------------------------------------|
G#|-----------------------------------------------------------------7-|
D#|-0---0---0-0-0---5-4-0-1-0-1-4-5--0---0---0-0-0---5-7-8-4--5-7-8---|

D#|--------------------------------------------------------------------|
A#|---------------------------------------------------------------3----|
F#|-----------------------------------------------------2-4-2-4-5------|
C#|-------------------------------------------2-3-2-3-5----------------|
G#|---------------------------------2-0-2-3-5------------------------2-|
D#|-0---0---0-0-0---5-4-0-1-0-1-4-5----------------------------------0-|

0:24 - 0:28
-                 t        t        t        t     t    t    t       t
D#|--------------------------------------------------------------------------|
A#|-12-15-0-12-15-22-12-15-20-12-15-19-12-15-17-\8-20-8-19-8-17-8-10-18-8-10-|
F#|--------------------------------------------------------------------------|
C#|--------------------------------------------------------------------------|
G#|--------------------------------------------------------------------------|
D#|--------------------------------------------------------------------------|

-   t       t       t
D#|---------------------|
A#|-14-8-10-15-8-10-17/-|
F#|---------------------|
C#|---------------------|
G#|---------------------|
D#|---------------------|

0:28 - 0:34 (above where this time marker is listed)

0:34 - 0:49
-                 t        t        t        t     t    t    t       t
D#|--------------------------------------------------------------------------|
A#|-12-15-0-12-15-22-12-15-20-12-15-19-12-15-17-\8-20-8-19-8-17-8-10-18-8-10-|
F#|--------------------------------------------------------------------------|
C#|--------------------------------------------------------------------------|
G#|--------------------------------------------------------------------------|
D#|--------------------------------------------------------------------------|

-   t       t       t
D#|---------------------|
A#|-14-8-10-15-8-10-17/-|
F#|---------------------|
C#|---------------------|
G#|---------------------|
D#|---------------------|x2

-               t       t       t       t       t    t    t    t
D#|----------------------------------------------------------------|
A#|-9-12-0-9-12-19-9-12-17-9-12-16-9-12-14-9-12-17-9-16-9-14-9-14/-|
F#|----------------------------------------------------------------|
C#|----------------------------------------------------------------|
G#|----------------------------------------------------------------|
D#|----------------------------------------------------------------|x2

-   t        t        t     t     t
D#|-------------------17-------15-17-15-12-15\-|
A#|-17-12-15-17-12-15----12-15-----------------|
F#|--------------------------------------------|
C#|--------------------------------------------|
G#|--------------------------------------------|
D#|--------------------------------------------|

0:49 - 0:59
If you prefer, artificial harmonics can be played on the G# string second fret instead 
the 12's
D#|---------------------------------------------------------------------------|
A#|---------------------------------------------------------------------------|
F#|---------------------------------------------------------------12-12-12-12-|
C#|---------------------------------------------------------------12-12-12-12-|
G#|---------------------------------------------------------------------------|
D#|-0-0-0-0-0-0-0-0---0-0-0-0-0-0-0-0---0-0-0-0-0-0-0-0---0-0-0-0-------------|x2

0:59 - 1:25 (Slide to the five. I can't put the slashes in because it auto-enters if you 
two of them in a line)
D#|-------------------------------------------------------|
A#|-------------------------------------------------------|
F#|-------------------------------------------------------|
C#|---3-5-4---------3-5-4---------3-5-4---------3-5-4-----|
G#|-2-------------2-------------2-------------2-----------|
D#|-0-------5-3---0-------5-3---0-------6-7---0-------5-3-|

D#|---------------------------------------------------------------------|
A#|---------------------------------------------------------------------|
F#|---------------------------------------------------------------------|
C#|---3-5-4-------------4-5-7-----3-5-4---------3-5-4---------3-5-4-----|
G#|-2-------------4-5-7---------2-------------2-------------2-----------|
D#|-0-------3-5-7---------------0-------5-3---0-------6-7---0-------5-3-|

D#|---------------------------------------------------------------------|
A#|---------------------------------------------------------------------|
F#|---------------------------4-5-7-------------------------------------|
C#|---3-5-4-------------4-5-7-----------3-5-4h5p4---------3-5-4h5p4-----|
G#|-2-------------4-5-7---------------2-----------------2---------------|
D#|-0-------3-5-7---------------------0-----------5-3---0-----------6-7-|

D#|---------------------------------------------------------------------|
A#|---------------------------------------------------------------------|
F#|---------------------------------------------------------------4-5-7-|
C#|---3-5-4h5p4---------3-5-4h5p4-------------4-5-7---------4-5-7-------|
G#|-2-----------------2-----------------4-5-7---------4-5-7-------------|
D#|-0-----------5-3---0-----------3-5-7---------------------------------|

D#|-------------------------------------------------------------------|
A#|-------------------------------------------------------------------|
F#|-------------------------------------------------------------------|
C#|---3-5-4h5p4---------3-5-4h5p4---------3-5-4h5p4---------3-5-4h5p4-|
G#|-2-----------------2-----------------2-----------------2-----------|
D#|-0-----------5-3---0-----------6-7---0-----------5-3---0-----------|

1:25 - 1:39
D#|---------------------------------5-7-8-------------|
A#|---------------------------5-7-8-------------------|
F#|-------4-5-7---------4-5-7-------------------4-5-7-|
C#|-4-5-7---------4-5-7-------------------4-5-7-------|
G#|---------------------------------------------------|
D#|---------------------------------------------------|

D#|-------------------5-7-8--------7-8-10-|
A#|-------------5-7-8-------7-8-10--------|
F#|-------4-5-7---------------------------|
C#|-4-5-7---------------------------------|
G#|---------------------------------------|
D#|---------------------------------------|x4

1:39 - 1:55
D#|---------------------------------------------------------------------------|
A#|---------------------------------------------------------------------------|
F#|---------------------------------------------------------------------------|
C#|---------------------------------------------------------------------------|
G#|---------------------7-6-0-7-6-0-7-6-0-7-6-0-4-6-7-7-6-0-7-6-0-7-6-0-7-6-0-|
D#|-0-0-0---0-0-0-0-0-0-------------------------------------------------------|

D#|-------------------------------------------------|
A#|-------------------------------------------------|
F#|-------4-5-7-9-7-5-------7-5-4-------------5-7-9-|
C#|-4-5-7-------------9-7-5-------7-5-4-5-7-9-------|
G#|-------------------------------------------------|
D#|-------------------------------------------------|

D#|---------------7-8-10-12-10-8----10-8--------------------10----10----------|
A#|--------7-8-10----------------12------12-10-8-8~--10-10--10b12----12r10-8~-|
F#|-7-9-11--------------------------------------------------------------------|
C#|---------------------------------------------------------------------------|
G#|---------------------------------------------------------------------------|
D#|---------------------------------------------------------------------------|

-                                   | where it slows  |
D#|-------5-7-8-7-5-----------------------------------|
A#|-5-7-8-----------8-7-5-----------------------------|
F#|-----------------------7-5-4-----------------------|
C#|-----------------------------7-5-4-----------------|
G#|-----------------------------------7-5-3-----------|
D#|-----------------------------------------7-5-(5)b6-|

1:55 - 2:07
D#|-------------------------------|---|-------------------------------------|
A#|-------------------------------|---|-------------------------------------|
F#|-------------------------------|---|-------------------------------------|
C#|-------------------------------|---|---10-9-10-9---10-9-10-8---10-9-10-9-|
G#|---8-7-8-7---8-7-8-6---8-7-8-7-|---|-0-----------0-----------0-----------|
D#|-0---------0---------0---------|x4-|-------------------------------------|x2

2:07 - 2:23
D#|--------------------------------------------------------11-15-14-12-|
A#|-----------------------------------------------------12-------------|
F#|-9---11-12-11-9----9-11-12-11-9-------11-12-11----11----------------|
C#|---9------------10-----------------14----------14-------------------|
G#|--------------------------------12----------------------------------|
D#|--------------------------------------------------------------------|x2

D#|------------------------------------------------------|
A#|------------------------------------------------------|
F#|-9---11-12-11-9-8---9-11-9-8-7---9-11-9-7-6---7-9-7-6-|
C#|---9--------------9------------7------------7---------|
G#|------------------------------------------------------|
D#|------------------------------------------------------|

D#|--------------------12-15-19-17-15-----------------------12-14-17-15-14-|
A#|-----------------13-----------------------------------13----------------|
F#|------------9-12---------------------------------9-12-------------------|
C#|---------10-----------------------------------10------------------------|
G#|------10-----------------------------------10---------------------------|
D#|-8-12---------------------------------8-12------------------------------|

D#|--------------------12-15-19-17-15-----------------------12-14-15-17-|
A#|-----------------13-----------------------------------13-------------|
F#|------------9-12---------------------------------9-12----------------|
C#|---------10-----------------------------------10---------------------|
G#|------10-----------------------------------10------------------------|
D#|-8-12---------------------------------8-12---------------------------|

2:23 - 2:37
D#|-19-0-15-0-17-14-0-19-0-15-0-17-14-0-17-14-0-19-0-15-0-17-14-0-|
A#|---------------------------------------------------------------|
F#|---------------------------------------------------------------|
C#|---------------------------------------------------------------|
G#|---------------------------------------------------------------|
D#|---------------------------------------------------------------|

D#|-15-12-14----------12-14-15/17\15-14-------------15-17-15-14------------|-----|
A#|----------15-12-15-------------------17-15-13----------------17-15-13---|-----|
F#|----------------------------------------------16----------------------16|--\12|
C#|------------------------------------------------------------------------|-----|
G#|------------------------------------------------------------------------|-----|
D#|------------------------------------------------------------------------|x2---|

2:37 - 2:46
D#|----------------------------------------------------------------------------|
A#|---------------------------------12-----------------------------------------|
F#|-14-14b16r14-14-12-11~--11-12-14----14-12-11-9-9-9-9-9-9-9-9-9-9-9-9-9-9-9-9|
C#|----------------------------------------------------------------------------|
G#|----------------------------------------------------------------------------|
D#|----------------------------------------------------------------------------|

D#|-------------------------------------------------------------------------|
A#|-------------------------------------------------------------------------|
F#|-11-11-11-11-11-11-11-11-11-11-11-11-11-11-11-11-12-12-12-12-12-12-12-12-|
C#|-------------------------------------------------------------------------|
G#|-------------------------------------------------------------------------|
D#|-------------------------------------------------------------------------|

D#|-----------------------------------------|
A#|-------------------------------15--------|
F#|-14-14-14-14-14-14-14-14-14b16----16r14~-|
C#|-----------------------------------------|
G#|-----------------------------------------|
D#|-----------------------------------------|

2:46 - End (These are primarily major and minor arpeggios)
D#|-15-12----------------------------12-15-12----------------------------12-|
A#|-------13----------------------13----------13----------------------13----|
F#|----------12----------------12----------------12----------------12-------|
C#|-------------14----------14----------------------14----------14----------|
G#|----------------15-10-15----------------------------15-10-15-------------|
D#|-------------------------------------------------------------------------|

D#|-15/19-15----------------------15-19-15----------15-19-15----------------|
A#|----------17----------------17----------17----17----------17-------------|
F#|-------------16----------16----------------16----------------16----------|
C#|----------------17----17----------------------------------------17-------|
G#|-------------------19----------------------------------------------19-15-|
D#|-------------------------------------------------------------------------|

D#|-------------14-17-14----------------------14-17-14-------------|
A#|----------15----------15----------------15----------15----------|
F#|-------14----------------14----------14----------------14-------|
C#|----16----------------------16----16----------------------16----|
G#|-17----------------------------17----------------------------17-|
D#|----------------------------------------------------------------|

D#|----------------10-14-10-------------------------12-15-12-------------|
A#|-------------12----------12-------------------13----------13----------|
F#|----------11----------------11-------------12----------------12-------|
C#|-------12----------------------12-------14----------------------14----|
G#|-10-14----------------------------14/15----------------------------15-|
D#|----------------------------------------------------------------------|

D#|--------------8-12-8------15-0-14-15-14-0-12-10-8-------8-|
A#|-----------10--------10---------------------------10-12---|
F#|---------9--------------9---------------------------------|
C#|------10--------------------------------------------------|
G#|-8-12-----------------------------------------------------|
D#|----------------------------------------------------------|

D#|-13-0-12-13-12-0-10-8-7--------8-5-------------7-10-12-8---------|
A#|------------------------10-8-7-----6---------8-----------10------|
F#|-------------------------------------5-----7----------------9----|
C#|---------------------------------------7/9--------------------10-|
G#|-----------------------------------------------------------------|
D#|-----------------------------------------------------------------|

D#|-12-8------------------------11-14-15-13-12----13-12-------12----------|
A#|------10------------------12----------------15-------15-13----15-13-12-|
F#|---------9-------------11----------------------------------------------|
C#|-----------10-------13-------------------------------------------------|
G#|--------------12/14----------------------------------------------------|
D#|-----------------------------------------------------------------------|

-                           t        t        t     t     t
D#|----------------------12-------------------17-------15-17-15-14-12/-|
A#|-15-13-12----------13----17-12-15-17-12-15----12-15-----------------|
F#|----------14----14--------------------------------------------------|
C#|-------------15-----------------------------------------------------|
G#|--------------------------------------------------------------------|
D#|--------------------------------------------------------------------|

| t  tap
| b  bend
| r  release bend
| /  slide up
| \  slide down
| h  hammer-on
| p  pull-off
| ~  vibrato
| +  harmonic
| x  Mute note
===============================================================================
Tap to rate this tab
# A B C D E F G H I J K L M N O P Q R S T U V W X Y Z