Song name
# A B C D E F G H I J K L M N O P Q R S T U V W X Y Z

Prozzak - Monday Morning tab

Email: chasensimmons@hotmail.com
E-mail me if I missed anything! Enjoy my first tab!

(2:13)

E|-------0-2-4-4--5-----2/4--2-----0-2-7--7h9p7-5-4---2-0---|
B|-0-2-4-------------2-----------4------------------------4-|
G|----------------------------------------------------------|
D|----------------------------------------------------------|
A|----------------------------------------------------------|
E|----------------------------------------------------------|


----0----------------------------------------------2-0--2-4-0-5~|
2-4-------------------7-9h10p9-7-9--7\5-4-2-1-----1-------------|
-------2-------------6------------------------2-1---------------|
----------------4-6-7-------------------------------------------|
------------0-4-------------------------------------------------|
----------4-----------------------------------------------------|
Tap to rate this tab
# A B C D E F G H I J K L M N O P Q R S T U V W X Y Z