Song name
# A B C D E F G H I J K L M N O P Q R S T U V W X Y Z

Prozzak - Never Get Over You tab

Intro 
e|---------------------------|
B|---------------------------|
G|----6------6---------------|
D|----6------6---------------|
A|----4------4---------------| 
E|---------------------------|

(0:15)
e|---------------------------|
B|---------------------------|
G|----666---2----------------|
D|----666---2---2------------| do this twice 
A|----444---0---2------------| 
E|--------------0------------|

Then (0:20)
e|---------------------------------|
B|---------------------------------|
G|---666--2------44----666--2------|
D|---666--2--22--44----666--2---2--|
A|---444--0--22--22----444--0---2--| 
E|-----------00-----------------0--|

(0:27)
e|---------------------------|
B|---------------------------|
G|---------9-----------------|
D|---777---9--9--------------|
A|---777---7--9--------------| 
E|---555------7--------------|

(0:33)
e|---------------------------|
B|---------------------------|
G|--------9------------------|
D|--777---9--9999------------|
A|--777---7--9999------------| 
E|--555------7766------------|

(0:36)

e|---------------------------|
B|---------------------------|
G|---666---2-----------------|
D|---666---2---2-------------|
A|---444---0---2-------------| 
E|-------------0-------------|

(0:39)

e|---------------------------|
B|---------------------------|
G|---4444---6666---2222------|
D|---4444---6666---2222------|
A|---2222---4444---0000------| 
E|---------------------------|

(0:51)
e|---------------------------|
B|---------------------------|
G|---2222---44--66-----------|
D|---2222---44--66-----------|
A|---0000---22--44-----------| 
E|---------------------------|

If you want to play the part over this it is......

e|---------------------------|
B|---------------------------|
G|----8---9--11---9----------| Ring out each note as needed
D|---------------------------|
A|---------------------------| 
E|---------------------------|

Chorus
e|---------------------------|
B|---------------------------|
G|--66--22--------66---------|
D|--66--22---22---66---------|
A|--44--00---22---44---------| 
E|-----------00--------------|
cont.
e|---------------------------|
B|---------------------------|
G|---2222---4----------------|
D|---2222---4----------------|
A|---0000---2----------------| 
E|---------------------------|

this next part could be played in many different ways, here are two I use.....

e|----4---2---0---2---4---0------4--2--0--2--4--4-2--|
B|--------------------------0--0---------------------|
G|---------------------------------------------------|
D|---------------------------------------------------|
A|---------------------------------------------------| 
E|---------------------------------------------------|

e|----------------------------------------------------------|
B|----9---7---5--7---9----7----------9---7---5--7---9--9--7-|
G|----------------------------6-6---------------------------|
D|----------------------------------------------------------|
A|----------------------------------------------------------| 
E|----------------------------------------------------------|

the next part is the same as before

(2:27) clean

e|------------------------------|
B|---5---3---1------------------|     pick these chords
G|---6---4---2------------------|
D|---6---4---2---2--------------|
A|---4---2---0---2--------------| 
E|---------------0--------------|

(2:40) you can play these chords if you would like

e|---------------------------|
B|---------------------------|
G|----2----4----6------------|
D|----2----4----6------------|
A|----0----2----4------------| 
E|---------------------------|

The next chorus is a bit different then the others.....
e|---------------------------|
B|---------------------------|
G|----88-------1111----------|
D|----88---99--1111---1111---| 
A|----66---99---9-9---1111---| 
E|---------77----------9-9---|
cont.
e|---------------------------|
B|---------------------------|
G|---------------------------|
D|----9999----111111---------|
A|----9999----111111---------| 
E|----7777----9-9-9----------|

The lead part is also a bit different.....

e|---6---4--2---4---6---2--------6---4---2---4---6--6--4---|
B|-------------------------2--2----------------------------|
G|---------------------------------------------------------|
D|---------------------------------------------------------|
A|---------------------------------------------------------| 
E|---------------------------------------------------------|

And that is it!
Tap to rate this tab
# A B C D E F G H I J K L M N O P Q R S T U V W X Y Z