Song name
# A B C D E F G H I J K L M N O P Q R S T U V W X Y Z

Public Disturbance - Pain And Misery tab

     pain is a figment of the mind.....
e -------------------------------------------------------|
b -------------------------------------------------------|
g -------------------------------------------------------|     intro
d -0000--11-2--------------------------------------------|       &
a -0000--11-2---------0-0-1-3-0-0-1-3-0-0-1-3-2-4--------|     verse
e -0000--11-2---------0-0-1-3-0-0-1-3-0-0-1-3-2-4--------|
   pm   repeat 3x           repeat 3x

   life is only pain and.....
  -------------------------------------------------------|
  -------------------------------------------------------|
  -------------------------------------------------------|
  -1-1-0-0-1-1-0-0---2-1-3-2-0-1-2-----------------------|  chorus
  -1-1-0-0-1-1-0-0---2-1-3-2-0-1-2-----------------------|
  -1-1 0-0-1-1-0-0---2-1-3-2-0-1-2-----------------------|
Tap to rate this tab
# A B C D E F G H I J K L M N O P Q R S T U V W X Y Z