Guitaretab - guitar tabs
Song name
# A B C D E F G H I J K L M N O P Q R S T U V W X Y Z

Puddle Of Mudd - Nobody Told Me tab

Band: Puddle Of Mudd
Title: Nobdy Told Me
Album: Come Clean (2001)
Tabbed By: Ian Reid

Drop Db:
Db Ab Db Gb Bb Eb

Intro:
gtr. 1
Eb--------||-------------------------------------------------------
Db--------||-------------------------------------------------------
Db--------||-------------------------------------------------------
Db-0-----||--0----------------------6-------------------------5----
Ab-0-----||--0----------------------6-------------------------5----
Db-0-----||--0----------------------6-------------------------5----

gtr. 2
Eb-------||--------------------------------------------------------
Bb-------||--------------------------------------------------------
Gb-------||--------------------------------------------------------
Db-0-----||-0𧯘𧯘--7/8𨃄𥥬𥥩𥥩𥥪𥥪𥥤--6----------
Ab-0-----||--------------------------------------------------------
Db-0-----||--------------------------------------------------------

Verse 1:  no guitar is played, bass only 
[ Tab from: http://www.guitaretab.com/p/puddle-of-mudd/120962.html ]
Chorus:  (listen for timing) (gtr.2 plays in some parts distantly intro gtr.2)
Eb-----------------------------------------------------------------
Bb-----------------------------------------------------------------
Gb-----------------------------------------------------------------
Db0-----------6------------5--------------------------------------
Ab0-----------6------------5--------------------------------------
Db0-----------6------------5--------------------------------------

Verses 2&3: (heavy distortion)
Eb-----------------------------------------------------------------
Bb-----------------------------------------------------------------
Gb-----------------------------------------------------------------
Db-0-0-0-0-0-0-0-0-0-0-0-0-6-6-6-6-6-6-6-5--5-5-5-5-5--5-5---------
Ab-0-0-0-0-0-0-0-0-0-0-0-0-6-6-6-6-6-6-6-5--5-5-5-5-5--5-5---------
Db-0-0-0-0-0-0-0-0-0-0-0-0-6-6-6-6-6-6-6-5--5-5-5-5-5--5-5---0-0---

Bridge:  palm muted x3, after then distortion (work it out, timing & strumming)

Eb----------------------------------------------------------------------------------------
Bb----------------------------------------------------------------------------------------
Gb-------------------------------------5-5-5-5------------------------------------5-5-5-5-
Db-7-7-7-0-5-5-5-5-0-5-5-5-03-3-3-3-----7-7-7-0-5-5-5-5-0-5-5-5-03-3-3-3----------------
Ab-5-5-5-0-3-3-3-3-0-3-3-3-0------------------5-5-5-0-3-3-3-3-0-3-3-3-0-------------------
Db----------------------------------------------------------------------------------------
Related for Nobody Told Me tab