Song name
# A B C D E F G H I J K L M N O P Q R S T U V W X Y Z

Puddle Of Mudd - Stoned tab

(/) Slide Up  (\) Slide Down  (h) Hammer On  (p) Pull Off  (b) Bend (r) Release
(v) Vibrato  (LR) Let Ring (#)Palm Mute
Intro
D#|--------------------------------------------------------------|
A#|--------------------------------------------------------------|
F#|---7------5----7----11---14---17-----5----7----11---14---13---|
C#|---x------x----x----x----x----x------x----x----x----x----x----|
G#|---5------3----5----9----12---15-----3----5----9----12---11---|
C#|----------0----0----0----0----0------0----0----0----0----0----|
     (LR)    /    /    /    /	 \      /    / 	  /    \

Intro Continued.
D#|-------------------------------------------------------------------------|
A#|-------------------------------------------------------------------------|
F#|----------------------------------                                    -0-|
C#|---0-0-5-3-5-5--0-6-5-3-----------   X4 Finish fourth with open strum -0-|
G#|---0-0-5-3-3-3--0-6-5-3-----------                                    -0-|
C#|---0-0-5-3-x-x--0-6-5-3--------------------------------------------------|

Verse
D#|---------------------------------------------------------|
A#|---------------------------------------------------------|
F#|---x12--------------x12-------------x12------------------|
C#|----0-----3-3-3-0----0----6-5-3-0----0----0-3-5-6-7-10-5-|
G#|----0-----3-3-3-0----0----6-5-3-0----0----0-3-5-6-7-10-5-|
C#|----0-----3-3-3-0----0----6-5-3-0----0----0-3-5-6-7-10-5-|
     (#)              (#)             (#)                (B)

Pre Chorus
D#|-------------------------------------------------|
A#|-------------------------------------------------|
F#|---x8---x4---x4---x8---x4---x4-------------------|
C#|----0----5----3----0----3----5-------------------|Let last one ring
G#|----0----5----3----0----3----5-------------------|
C#|----0----5----3----0----3----5-------------------|

Chorus
D#|--------------------------------------------------|
A#|--------------------------------------------------|
F#|--------------------------------------------------|
C#|--0-0-0-0-0-3-3-3-3-3-5-5-5-5-5-6-p-5-h-6-p-h-----|
G#|--0-0-0-0-0-3-3-3-3-3-3-3-3-3-3-6-p-5-h-6-p-h-----|
C#|--0-0-0-0-0-3-3-3-3-3-----------6-p-5-h-6-p-h-----|

Breakdown
E|----------------------------------------------------|
B|----------------------------------------------------|
G|--------------------x6--x6---x6--x6--x6--x8--x12----|
D|----8----8-8-8-8-8---5---0----5---7---8---5---7--0--|
A|----8----8-8-8-8-8---5---0----3---7---8---5---7--0--|LET RING
E|----8----8-8-8-8-8---5---0--------7---8---5---7--0--|

Last two chords palyed are 7 barred 6 barred then open

Order to be played.
Intro
Intro Continued
Verse
Pre Chorus
Chorus
Intro Continued Part..
Verse
Pre Chorus
Chrous
Breakdown
Intro Continued.
Tap to rate this tab
 
# A B C D E F G H I J K L M N O P Q R S T U V W X Y Z