Song name
# A B C D E F G H I J K L M N O P Q R S T U V W X Y Z

Puddle Of Mudd - Drift & Die tab

Artist: Puddle of Mudd
Song: Drift and Die
Album: Come Clean
Guitarist: Paul Phillips
Transcribed by: WrappedinGlass
!!I've heard two versions of this song, this tab is for the version on the
CD Come Clean!!

Half step down

Intro: (Corrected, I added another string. Thanks for pointing out my mistake:))
---1-----0-------1-------0----------0------0-------0-------0-------
---3-----3-------3-------3----------3------3-------3-------3-------
---2-----2-------2-------2----------2------0-------2-------0-------
------------------------------------x------x-------x-------x-------
------------------------------------3------2-------3-------2-------
------------------------------------0------3-------0-------3-------
Figure the strum pattern yourself

Chorus (Ignorance spreades lies...)
------------------------------                         
------------------------------                         
---7-----5----5---------------
---7-----5----5-----3/---5----
---5-----3----2-----3/---5----
--------------------1/---3----
Figure the strum pattern again

Interlude thingy:
----------------------------------                         
----------------------------------                         
--7--5--7------------------------- 
--7--5--7-------------------------
--5--3--5-------------------5--3--
----------1-1-1-3--1-1-1-3--------

---------------------------------                         
---------------------------------
--7---5--5-----------------------
--7---5--5--3\--5----------------
--5---3--2--3\--5----------------
------------1\--3----------------

Outro:
Just change the strum pattern of the chorus.
Tap to rate this tab
# A B C D E F G H I J K L M N O P Q R S T U V W X Y Z