Song name
# A B C D E F G H I J K L M N O P Q R S T U V W X Y Z

Puddle Of Mudd - Sydney tab

hey i noticed there was only 1 tab for this song and it blew so i gave it a try
and i think its perfect if not next to it.

Tuning: drop Db

Strum this out follow the song
Verse
eb---------------------------------------------------------------------------|
Bb---^6----6--------3--------5-----5^6------------8--------------------------|
Gb---^5----5--------2--------5-----5--------------7--------------------------|
Db--3------3--------0--------5-----5----------5---5--------------------------|
Ab--3------3--------0--------3-----3----------5---5--------------------------|
Db--3------3--------0-------------------------5---5--------------------------|
Pre-Chorus
eb----------------------------|
Bb----5-----------------------|
Gb----5-----------------------|
Db----5------------7----------|
Ab----3------------7----------|
Db-----------------7----------|
Chorus
eb--------------------------------------------------------------------------|
Bb--------------------------------------------------------------------------|
Gb--------------------------------------------------------------------------|
Db----0-----10-------7------10----------------------------------------------|
Ab----0-----10-------7------10----------------------------------------------|
Db----0-----10-------7------10----------------------------------------------|

and thats it have fun
Tap to rate this tab
 
# A B C D E F G H I J K L M N O P Q R S T U V W X Y Z