Song name
# A B C D E F G H I J K L M N O P Q R S T U V W X Y Z

Puscifer - Potions tab

"Potions" by Puscifer, album: ""C" is For (Please Insert Sophomoric Genitalia Reference HERE)"

Intro - Verse

E|----------------------------------------|         E|-------------------------------|
B|----------------------------------------|         B|-------------------------------|
G|----------------------------------------|         G|-------------12---------12-----|
D|----------------------------------------|         D|------15---------15------------|
A|------8------10------4------6---5-------|         A|-------------------------------|
E|----------------------------------------|         E|-------------------------------|

E|-------------------------------------------|
B|-------------------------------------------|
G|-------------------------------------------|
D|------10---9-------------------------------|
A|-----------------10---8---10--8--10--------|
E|-------------------------------------------|

Chorus

E|-----------15---------15------------|--------------------------------|
B|-----13---------13---------13-------|---11---8-----------------------|
G|------------------------------------|--------------10---8---10-------|
D|------------------------------------|--------------------------------|
A|------------------------------------|--------------------------------|
E|------------------------------------|--------------------------------|

Interlude - Outro

E|---------------------------------------------|
B|---------------------------------------------|
G|------8------------------------10------------|
D|------8---10------8------------10-----6------|
A|------6---10------8------------8------6------|
E|-----------8------6-------------------4------|

E|------------------------------------6--------------|
B|------4------3------4------6----------6------------|
G|------5------3------5------8------------8----------|
D|------5------3------5------8--------------8--------|
A|------3------1------3------6----------------6------|
E|---------------------------------------------------|

So, that's the song, if you want to improve the tab, please tell me...
I hope i've helped you
Thank you!!!
Tap to rate this tab
# A B C D E F G H I J K L M N O P Q R S T U V W X Y Z