Guitaretab - guitar tabs
Song name
# A B C D E F G H I J K L M N O P Q R S T U V W X Y Z

Queens Of The Stone Age - Never Say Never tab

Band- Queens Of Thge Stone Age
Song- Never Say Never

tuning (C,F,Bb,Eb,G,C)

<#> = harmonics
b=bend

intr (listen for toming)
-<4><4><4>--------------------|
-<4><4><4>--------------------|
-<4><4><4>--------------------|
----------666-666-666-666-666-|
----------666-666-666-666-666-|
----------444-444-444-444-444-|

main riff

---------<4>------------------|
-------<4>-<4>----------------|
-----<4>----<4>-----8-8-8-8---|
---<4>-------<4>----8-8-8-8---|
-<4>----------<4>---8-8-8-8---|
--------------------6-6-6-6---|

bridge riff

---------------------|
---------------------|
----776746-7767--777-|
---------------------|
---------------------|
---------------------|
[ Tab from: http://www.guitaretab.com/q/queens-of-the-stone-age/138850.html ]
-----------------------------------|
-----------------------------------|
----4677767477b64--776746776777777-|
-----------------------------------|
-----------------------------------|
-----------------------------------|

quiet bit

--------------------------------------|
--------------------------------------|
---886--88646--886--886--88646--886---|
---886--88646--886--886--88646--886---|
---664--66424--664--664--66424--664---|
--------------------------------------|

end

-----------------<4><4><4>---|
-----------------<4><4><4>---|
-----------------<4><4><4>---|
-----------------<4><4><4>---|
-----------------<4><4><4>---|
-<4><4><4><4><4>-------------|

any corrections feel free
if you can work out the solo please post it
Related for Never Say Never tab
Advertisement will be closed in 10 seconds