Song name
# A B C D E F G H I J K L M N O P Q R S T U V W X Y Z

Queens Of The Stone Age - I Wanna Make It Wit Chu tab

-------------------------------------------------------------------------------
			  MAKE IT WIT CHU - QUEENS OF THE STONE AGE
-------------------------------------------------------------------------------
Tabbed by: Lykke
Email: email my ug account

Tuning: Standard (EADGBE)

This is my first attempt ever on tabbing out a song. I really like QOTSA, especially
song. This is how I play it, please comment/correct if needed :) I know there are other
tabs for this song out there, but this tab is really suitable for a beginning guitar 
like myself.

You'll have to listen to this song for timing, but it's not that hard to figure out.


Main riff (same for intro, verse, chorus etc, so keep repeating this part troughout the song)

e|---------------------------------------------------------------------------|
B|---------------------------------------------------------------------------|
G|---------------------------------------------------------------------------|
D|--10-10-10-10-10-10-10-/-7-7-7-7-7-7-7------9-9---9-9---9-9---9------------|
A|--10-10-10-10-10-10-10-/-7-7-7-7-7-7-7------7-7---7-7---7-7---7------------|
E|--8--8--8--8--8--8--8--/-5-5-5-5-5-5-5--0-0-----0-----0-----0--------------|

Intro solo

e|---------------------------------------------------------------------------|
B|---------------------------------------------------------------------------|
G|---------------------------------------------------------------------------|
D|--------5----5--7--7b--5--7--7b--------5--------------------------7b~------|
A|--5--7----7~---------------------5--7----7--5--7-----5--7-----7~-----------|
E|--------------------------------------------------7--------3---------------|


Main solo (* see below)
e|----------------------------------------10b------------------------------|
B|-8-10-10-10-10-10-10-8-10-8~~---8-10---8----10b-----8-10b-8-10-----------|
G|------------------------------------9--------------------------9~~-7-9b~~|
D|-------------------------------------------------------------------------|
A|-------------------------------------------------------------------------|
E|-------------------------------------------------------------------------|

e|-------------------------------------------------------------------------|
B|-------------------------------------------------------------------------|
G|----9b-7-9---------------------------------------------------------------|
D|-------------5-7-7brp5---5-----------7b-7b-5---7p5---5---------5---7-5---|
A|-----------7-----------7-------5-7-----------------7---7---5-7-----------|
E|-------------------------------------------------------------------------|

e|-------------------------------------------------------------------------|
B|---------------------------------------------------8---------------------|
G|-------------------------7-9---------------7---7-9-----9-9b-9~~~---------|
D|--7b-5-7---5-------5-7s9-----7s5-7---5-7s9---9---------------------------|
A|---------7---7-5-7-----------------7-------------------------------------|
E|-------------------------------------------------------------------------|

e|-------------------------------------------------------------------------|
B|--7h8p7---7--------------------------------------------------------------|
G|--------9---9-7~---9p7---7~----------------------------------------------|
D|-----------------------9-----7s5-7s9~------------------------------------|
A|--------------------------------------7p5h7~---5-7----/7-----------------|
E|----------------------------------------------------3--------------------|

e|---------------------7-10-7--------7-----7-------------------------------|
B|-------------------8--------8------10b11-10b12~~-----10b--10-8-10---8~---|
G|-----------------9------------9~~------------------9--------------9---9~-|
D|--(5)------5-9~----------------------------------------------------------|
A|-----(7)-7---------------------------------------------------------------|
E|-------------------------------------------------------------------------|

e|-------------------------------------------------------------------------|
B|--10-----10-----10-------------------------------------------------------|
G|-----9~~----9~~----9~~---------------------------------------------------|
D|-------------------------------------------------------------------------|
A|-------------------------------------------------------------------------|
E|-------------------------------------------------------------------------|


(*) I copied this solo from AD57 (http://profile.ultimate-guitar.com/AD57/). It's kinda
for a beginner so i couldn't tab it out myself

************************************

| /   slide up
| \   slide down
| h   hammer-on
| p   pull-off
| ~   vibrato
| +   harmonic
| x   Mute note
| b   Bend
| pb  Pre-bend
| br  Bend release
| pbr Pre-bend release
| brb Bend release bend

************************************
Tap to rate this tab
 
# A B C D E F G H I J K L M N O P Q R S T U V W X Y Z