Song name
# A B C D E F G H I J K L M N O P Q R S T U V W X Y Z

Queens Of The Stone Age - You Think I Aint Worth A Dollar, But I Feel Like A Millionaire tab

riff 1

E---------------------------------
B---------------------------------
G---------------------------------  x2
D--3-5----------------------------
A---------------------------------
E------0-0-0-0-0--0-0-0-0-0--0-0--

riff 2

E-----------------------------------------------------------------
B-----------------------------------------------------------------
G-----------------------------------------------------------------  x1
D--3-5-----------------------------5-3----------------------------
A----------------------------5-3-5--------------------------------
E------0-0-0-0-0--0-0-0-0-0------------0-0-0-0-0--0-0-0-0-0--0-0--

riff 1 : x8 with heavy distortion

riff 3                    on 2nd time add these 3 chords
                                   \         /
E-----------------------------------|-------|
B-----------------------------------|-------|
G-----------------------------------|-------| x2
D--7-7-7-5--5-5-5-5-5-5-5-5-5-5-5-5-|-5-5-5-|
A--7-7-7-5--5-5-5-5-5-5-5-5-5-5-5-5-|-5-5-5-|
E--5-5-5-3--3-3-3-3-3-3-3-3-3-3-3-3-|-3-3-3-|

riff 1 : x4
riff 2 : x1
riff 1 : x4
riff 3 : x2

riff 4          
                                                                                         play whole thing once then play just this bit x7
        /                              \         
E------|--------------------------------|
B------|--------------------------------|
G------|----------------3-5-------------|
D--3-5-|--------------------3-5---------|
A------|------------------------3-5-----|
E------|-0-0-0-0-0--0-0-------------3-5-|

riff 3 : x2
riff 1 : x2
riff 2 : x1
riff 1 : x4
riff 3 : x2
Tap to rate this tab
# A B C D E F G H I J K L M N O P Q R S T U V W X Y Z