Song name
# A B C D E F G H I J K L M N O P Q R S T U V W X Y Z

Queens Of The Stone Age - Auto Pilot tab

QUEENS OF THE STONE AGE - Auto Pilot (Standard tuning)
Tabbed by NzT

NOTE: The song is actually played in C Standard but for convenience' sake, I 
tabbed it in Standard.

Rhythm riff
e|--------7-----------------|----------------------------------|
B|--------7-----------------|----------------------------------|
G|--------7-----------------|----------------------------------|
D|-7h9-9-----7h9-9--7-7--7h9|-7--7--7---7---7--7-7-7-7--7--7---|
A|-7h9-9-----7h9-9--7-7--7h9|-9--9--7h9-9---7--7-7-7-7--7--7---|
E|-7---7-----7---7--7-7--7--|-10-10-10--10--7--9-9-9-7--7--7h9-|


Solo riff
e|------------------------------------|------------------------------------|
B|------12~------12~-(12)-12fb~-12fb~-|-12fb--10h12------------------------|
G|-9s11-----9s11----------------------|-------------9s7--------------------|
D|------------------------------------|-----------------9~-----7s9-(9)-9b~-|
A|------------------------------------|--------------------7s9-------------|
E|------------------------------------|------------------------------------|


************************************

| s   slide
| h   hammer-on
| ~   vibrato
| b   bend
| fb  full bend
| ()  optional notes

************************************
Tap to rate this tab
 
# A B C D E F G H I J K L M N O P Q R S T U V W X Y Z