Song name
# A B C D E F G H I J K L M N O P Q R S T U V W X Y Z

Queens Of The Stone Age - Keep Your Eyes Peeled tab

QOTSA - Keep Your Eyes Peeled
Tuning:  C-F-A#-D#-G-C (2 steps down)

This is a tab for the video version of Keep Your Eyes Peeled, from the upcoming album 
Like Clockwork.

It's fairly simple, with a couple of different riffs repeated throughout. Listen to the 
song for the rhythm.

Main Riff:

c------------------------------------------------------|
G------------------------------------------------------|
D#-----------------------------------------------------|
A#---------------------------------------3b--1---------|
F------------------------------------------------------|
C----0--0---0-0--0----0--0------0-2b-0-----------------|
     x  x   x x  x    x  x      x

This is repeated throughout, with a few variations here and there. Just play around with 
it a bit.

Wah Riff:

c------------------------------------------------------|
G------------------------------------------------------|
D#------14-14-14-16----12-12-12-9----------------------|
A#-----------------------------------------------------|
F------------------------------------------------------|
C------------------------------------------------------|

Bridge:

c------------------------------------------------------|
G------------------------------------------------------|
D#-------18-----18--------18---------18----------------|
A#-----------------------------------------------------|
F-----16----16--------16-------16----------------------|
C------------------------------------------------------|

c------------------------------------------------------|
G------------------------------------------------------|
D#-------18-----18--------18---------19----------------|
A#-----------------------------------------------------|
F------------------------------------------------------|
C-----17-----17-------17--------17--------17-----------|

c------------------------------------------------------|
G------------------------------------------------------|
D#-------18-----18--------18---------18----------------|
A#-----------------------------------------------------|
F-----16----16--------16-------16----------------------|
C------------------------------------------------------|

c------------------------------------------------------|
G------------------------------------------------------|
D#-------18-----18--------18---------19----------------|
A#-----------------------------------------------------|
F------------------------------------------------------|
C-----17-----17-------17--------17---------17----------|

c------------------------------------------------------|
G------------------------------------------------------|
D#----10--9--12--14--9--10-9--10-9---------------------|
A#-----x--x---x---x--x--x--x--x--x---------------------|
F------8--7--10--12--7--8--7--8--7---------------------|
C------------------------------------------------------|

That's about it. Don't take this as a perfect transcription of the song, just use it as 
a sort of guide.
Tap to rate this tab
 
# A B C D E F G H I J K L M N O P Q R S T U V W X Y Z