Song name
# A B C D E F G H I J K L M N O P Q R S T U V W X Y Z

Queens Of The Stone Age - Smooth Sailing tab

Intro:
    
    D              C# 
e|-------------------------|               
B|--7777777777777~-666~----|
G|--7777777777777~-666~----|
D|-------------------------|
A|-------------------------|
E|-------------------------|

e|---------------------------------------------------------------------------|
B|---------------------------------------------------------------------------|
G|---------------------------------------------------------------------------|
D|---2-3-4------------2-4-------------2-----2h4-2h4--------------------------|
A|----------0-------------0-------------0------------0-0-0-------------------|
E|--2-----------2---2-------2-0-2-0-2-----2-----------------0-2-0-2----------|

e|---------------------------------------------------------------------------|
B|---------------------------------------------------------------------------|
G|---------------------------------------------------------------------------|
D|---2-3-4------------2-4-------------2-----2h4-2h4--------------------------|
A|----------0-------------0-------------0------------0-0-0-------------------|
E|--2-----------2---2-------2-0-2-0-2-----2-----------------0-2-0-2----------|

Verse #1:

It's all in motion 
No stoppin' now 
I've got nothin' to lose 
And only one way up 

I'm burning bridges 
I destroy the mirage 
Oh, visions of collisions 
Fuckin' bon voyage 

e|---------------------------------------------------------------------------|
B|---------------------------------------------------------------------------|
G|---------------------------------------------------------------------------|
D|---2-3-4------------2-4-------------2-----2h4-2h4--------------------------|
A|----------0-------------0-------------0------------0-0-0-------------------|
E|--2-----------2---2-------2-0-2-0-2-----2-----------------0-2-0-2----------|

e|---------------------------------------------------------------------------|
B|---------------------------------------------------------------------------|
G|------------------------------------------------------------------------2--|
D|---2-3-4------------2-4-------------2-----2h4-2h4----------------------2-4-|
A|----------0-------------0-------------0------------0-0-0---------2-3-4-----|
E|--2-----------2---2-------2-0-2-0-2-----2----------------0-2-0-2-----------|


Chorus #1:

It's all smooth sailing 
From here on out 

e|-------------------|
B|-------------------|
G|-------------------|
D|---4-4---6--7-8-9--|
A|---4-4---4--5-6-7--| (3x)
E|---2-2-------------|

e|------------------------------------------------|
B|------------------------------------------------|
G|--2-2-2----------2------------------------------|
D|--2-2-2--------2----4---------------------------|
A|--0-0-0--2-3-4----------------------------------|
E|------------------------------------------------|


Verse #2:

I got bruises and hickies 
Stitches and scars 
Got my own theme music 
It plays wherever I are 

Fear is the hand 
That pulls your strings 
A useless toy 
Pitiful play thing 

I'm inflagranti
In every way

e|---------------------------------------------------------------------------|
B|---------------------------------------------------------------------------|
G|---------------------------------------------------------------------------|
D|---2-3-4------------2-4-------------2-----2h4-2h4--------------------------|
A|----------0-------------0-------------0------------0-0-0-------------------|
E|--2-----------2---2-------2-0-2-0-2-----2-----------------0-2-0-2----------|

e|---------------------------------------------------------------------------|
B|---------------------------------------------------------------------------|
G|------------------------------------------------------------------------2--|
D|---2-3-4------------2-4-------------2-----2h4-2h4----------------------2-4-|
A|----------0-------------0-------------0------------0-0-0---------2-3-4-----|
E|--2-----------2---2-------2-0-2-0-2-----2----------------0-2-0-2-----------| (2x)


Chorus #2:

It's all smooth sailing 
From here on out 

e|-------------------|
B|-------------------|
G|-------------------|
D|---4-4---6--7-8-9--|
A|---4-4---4--5-6-7--| (3x)
E|---2-2-------------|

e|------------------------------------------------|
B|------------------------------------------------|
G|--2-2-2----------2------------------------------|
D|--2-2-2--------2----4---------------------------|
A|--0-0-0--2-3-4----------------------------------|
E|------------------------------------------------|

I'm gon' do the damage
That needs gettin' done

e|-------------------|
B|-------------------|
G|-------------------|
D|---4-4---6--7-8-9--|
A|---4-4---4--5-6-7--| (3x)
E|---2-2-------------|

e|------------------------------------------------|
B|------------------------------------------------|
G|--2-2-2----------2------------------------------|
D|--2-2-2--------2----4---------------------------|
A|--0-0-0--2-3-4----------------------------------|
E|------------------------------------------------|


Bridge:

    D              C# 
e|-------------------------|               
B|--7777777777777~-666~----|
G|--7777777777777~-666~----|
D|-------------------------|
A|-------------------------|
E|-------------------------|

God only knows
Where love vacations
If reason is priceless
There's no reason to pay for it

It's so easy to see
And so hard to find
Make a mountain of a mole hill
If the mole hill is mine

e|-------------------------|
B|-------------------------|
G|---77-9-11-4-77-9-7\4----|
D|---77-9-11-4-77-9-7\4----|
A|---55-7-9--2-55-7-5\2----|
E|-------------------------| (4x)

Solo:

e|-------------------------------------------------------------------------------|
B|------------------------------------------------------5------------------------|
G|------------------4b6-4b6-4b6-4b6-4b6---2h4p2------2---------------------------|
D|---2-3-4---2/4-----------------------------------4---4---4~--------------------|
A|---------0---------------------------------------------------------------------|
E|-------------------------------------------------------------------------------|

e|---------------------------------------------------------------------------------|
B|----------2-----------4---2-4-2--545454-5b7-5-4----------------------------------|
G|------2-----4p2----2----4--------------------------------------------------------|
D|--2-4---4--------4---------------------------------------------------------------|
A|---------------------------------------------------------------------------------|
E|---------------------------------------------------------------------------------|

e|--------------------------------------------------------------------------------|
B|------4---5--------4-5-------4-5--4h5p4-----------------------------------------|
G|--5-6---6---6--5-6----6--5-6------------5 5b64-2-----/12-12-12\10--10\8-8/10---|
D|--------------------------------------------------------------------------------|
A|--------------------------------------------------------------------------------|
E|--------------------------------------------------------------------------------|

e|---------------------------------------------------------------------------|
B|---------------------------------------------------------------------------|
G|-10\8 --12b----------------------------------------------------------------|
D|---------------------------------------------------------------------------|
A|---------------------------------------------------------------------------|
E|---------------------------------------------------------------------------|

Verse #3:

I hypnotize you
And no one can find you
I blow my load
Over the status quo
Here we go

I'm a little bit nonchalant 
But I dance
I'm risking it always
No second chance

e|---------------------------------------------------------------------------|
B|---------------------------------------------------------------------------|
G|---------------------------------------------------------------------------|
D|---2-3-4------------2-4-------------2-----2h4-2h4--------------------------|
A|----------0-------------0-------------0------------0-0-0-------------------|
E|--2-----------2---2-------2-0-2-0-2-----2-----------------0-2-0-2----------|

e|---------------------------------------------------------------------------|
B|---------------------------------------------------------------------------|
G|------------------------------------------------------------------------2--|
D|---2-3-4------------2-4-------------2-----2h4-2h4----------------------2-4-|
A|----------0-------------0-------------0------------0-0-0---------2-3-4-----|
E|--2-----------2---2-------2-0-2-0-2-----2----------------0-2-0-2-----------| (2x)

Chorus #3:

It's all smooth sailing 
From here on out 

e|-------------------|
B|-------------------|
G|-------------------|
D|---4-4---6--7-8-9--|
A|---4-4---4--5-6-7--| (3x)
E|---2-2-------------|

e|------------------------------------------------|
B|------------------------------------------------|
G|--2-2-2----------2------------------------------|
D|--2-2-2--------2----4---------------------------|
A|--0-0-0--2-3-4----------------------------------|
E|------------------------------------------------|

I'm gon' do the damage
That needs gettin' done

e|-------------------|
B|-------------------|
G|-------------------|
D|---4-4---6--7-8-9--|
A|---4-4---4--5-6-7--| (3x)
E|---2-2-------------|

e|------------------------------------------------|
B|------------------------------------------------|
G|--2-2-2----------2------------------------------|
D|--2-2-2--------2----4---------------------------|
A|--0-0-0--2-3-4----------------------------------|
E|------------------------------------------------|


Bridge:

    D              C# 
e|-------------------------|               
B|--7777777777777~-666~----|
G|--7777777777777~-666~----|
D|-------------------------|
A|-------------------------|
E|-------------------------|

God only knows
So mind your behavior
Follow prescriptions
Of your lord and savior

Every temple is gold
Every hook is designed
Hell is but the temple
Of the closed mind

e|-------------------------|
B|-------------------------|
G|---77-9-11-4-77-9-7\4----|
D|---77-9-11-4-77-9-7\4----|
A|---55-7-9--2-55-7-5\2----|
E|-------------------------| (4x)


Bridge #2:

Closed mind
Closed mind
Closed mind

e|---------------------------------------------------------------------------|
B|---------------------------------------------------------------------------|
G|---234-345-456-567---------------------------------------------------------|
D|---------------------------------------------------------------------------|
A|---------------------------------------------------------------------------|
E|---------------------------------------------------------------------------|...


Final Chorus:

It's all smooth sailing 
From here on out 

e|-------------------|
B|-------------------|
G|-------------------|
D|---4-4---6--7-8-9--|
A|---4-4---4--5-6-7--| (3x)
E|---2-2-------------|

e|------------------------------------------------|
B|------------------------------------------------|
G|--2-2-2----------2------------------------------|
D|--2-2-2--------2----4---------------------------|
A|--0-0-0--2-3-4----------------------------------|
E|------------------------------------------------|

Shut up

Pow!
Tap to rate this tab
# A B C D E F G H I J K L M N O P Q R S T U V W X Y Z