Song name
# A B C D E F G H I J K L M N O P Q R S T U V W X Y Z

Queens Of The Stone Age - Make It Wit Chu tab

MAKE IT WIT CHU-QUEENS OF THE STONE AGE-ERA VULGARIS
Tabbed by:Frusciante_50
Standard tuning

Note:

This is another one of my QOTSA tabs in standard, for those of you who can't be arsed to 
all the way down to C

Intro, verse and chorus chords:

e|-------------------------------------------------------------------------|
B|-------------------------------------------------------------------------|
G|-------------------------------------------------------------------------|
D|10-10-10-10-10-10-10-10--7-7-7-7-7-7-7-7------9-9-----9-9-----9-9----9-9-|
A|10-10-10-10-10-10-10-10--7-7-7-7-7-7-7-7------7-7-----7-7-----7-7----7-7-|
E|-8--8--8--8--8--8--8--8--5-5-5-5-5-5-5-5--0-0-----0-0-----0-0----0-0-----|

Intro lead:

e|-------------------------------------------------------------------------|
B|-------------------------------------------------------------------------|
G|-------------------------------------------------------------------------|
D|------5-------5--7--7b--------5--7--7b--------5--------------------------|
A|-5--7---7--------------------------------5--7---7----5--7-----5--7------7|
E|-----------------------------------------------------------7---------3---|

Add vibrato to the final note of the lead, into the verse

Then play the verse riff, for the verse and the chorus

It is then verse 2 and chorus 2


Solo:
e|-------------------------------------------------------------------------|
B|----------------------------------------------15b------------------------|
G|-12-14-14-14-14-14-14-12-14-12----12-14----12------14b-14----------------|
D|----------------------------------------14-------------------------------|
A|-------------------------------------------------------------------------|
E|-------------------------------------------------------------------------|

e|-------------------------------------------------------------------------|
B|-------------------------------------------------------------------------|
G|-12-14b-12-14------------------------------------------------------------|
D|--------------14----12-14b------12-14b-14-12-----------------------------|
A|----------------------------------------------12--10h12-----10h12--------|
E|---------------------------------------------------------12--------------|

e|-------------------------------------------------------------------------|
B|-------------------------------------------------------------------------|
G|-------------------------------------------------------------------------|
D|-------------------------------------------------------------------------|
A|-------12b-12b-10--12p10--10------------10-12-10-12b-10-12-10----10-12-10|
E|-10h12-----------------------12---10h12-----------------------12---------|

e|-------------------------------------------------------------------------|
B|-------------------------------------------------------------------------|
G|--------------------------------11h12p11----11---------------------------|
D|-------------10-12------10-12b-----------14----14-12---14p12----12-------|
A|----10-12-14-------------------------------------------------14----------|
E|-12----------------------------------------------------------------------|

e|-------------------------------------------------------------------------|
B|-------------------------------------------------------------------------|
G|-------------------------------------------------------------------------|
D|-------------------------------------------------------------------------|
A|-12p10h12/14----------------------------------------7--------------------|
E|--------------12p10h12-----10-12--------------3--------------------------|

Thats about it

ENJOY!
Tap to rate this tab
 
# A B C D E F G H I J K L M N O P Q R S T U V W X Y Z