Guitaretab - guitar tabs
Song name
# A B C D E F G H I J K L M N O P Q R S T U V W X Y Z

Queens Of The Stone Age - Tension Head tab

                 Tension Head  Queens Of the Stone Age

Tabbed by: xxqotsaxx (braegen moffo)
Email: xxqotsaxx@yahoo.com

Tuning: CGCFAD

D|--------------------------------------------------------------------|
A|--------------------------------------------------------------------|
F|--------------------------------------------------------------------|
C|-------------------------------10-10-10-10-10----10-10-10-10-10-----|
G|-------------------------------8-8-8--8--8-----8--8--8--8--8------|
C|--0-12-11-7-10-6-0-5-6-7--------------------------------------------|
[ Tab from: http://www.guitaretab.com/q/queens-of-the-stone-age/90884.html ]
D|--------------------------------------------------------------------|
A|--------------------------------------------------------------------|
F|--------------------------------------------------------------------|
C|----10-10-10-10-10----10-10-10-10-10-12--13--15---------------------|
G|----8--8--8-8-8-----8--8--8--8--8--10--11--13---------------------|
C|--------------------------------------------------------------------|

D|--------------------------------------------------------------------|
A|--------------------------------------------------------------------|
F|--------------------------------------------------------------------|
C|----10-10-10-10-10----10-10-10-10-10----10-7------------------------|
G|----8--8--8--8--8-----8--8--8--8--8-----8--5------------------------|
C|--------------------------------------------------------------------|

D|--------------------------------------------------------------------|
A|--------------------------------------------------------------------|
F|--------------------------------------------------------------------|
C|----10-10-10-10-10----10-10-10-10-10-12--13--15---------------------|
G|----8--8--8-8-8-----8--8--8--8--8--10--11--13---------------------|
C|--------------------------------------------------------------------|
Related for Tension Head tab