Song name
# A B C D E F G H I J K L M N O P Q R S T U V W X Y Z

Quiet Riot - Battle Axe tab

Quiet Riot
Album - Metal Health
Battle Axe

Standard Tuning
Tabbed by - Brian Smith

i didn't see this in a tab for people without power tabs, or guitar pro, so i tried. 
rate as you see fit.

legend
|_3_| - triplet
  /   - Slide Up
  \   - Slide Down
  ~   - Vibrato
  h   - Hammer On
  p   - Pull Off
  x\  - Pick Slide

 1e&a2e&a3e&a4e&a 1e&a2e&a3e&a4e&a 1e&a2e&a3e&a4dade1e&a2e&a3e&a4e&a
|----------------|----------------|----------------|------------------|
|----------------|----------------|----------------|------------------|
|----------------|----------------|----------------|------------------|
|----------------|----------------|----------------|------------------|
|----------------|4---5---4---5---|4--------------4/5------4/5-----4--|
|2222222222222222|--2---2---2---2-|--2222222222-02-|-----02------02---|
                                               |_3_| ~~~~    ~~~~

 1e&a2e&a3e&a4e&a 1e&a2e&a3dade4e&a 1dade2e&a3e&a4e&a 1e&a2e&a3dade4e&a
|----------------|-----------------|-----------------|----------------|
|----------------|-----------------|-----------------|----------------|
|----------------|-----------------|-----------------|----------------|
|----------------|4--------432-----|-432-----020-0---|----------------|
/524-2----------3|-------3--------3|------------4--4-|24202020--------|
|---5-353232--02-|-----02-------02-|-----------------|---------3532320|
            ~~     ~~~~   |_3_~~    |_3_~~~~~ hp       hpph hp|_3_|

 1e&a2e&a 1e&a2e&a3e&a4e&a 1 e & a 2 e & a 3 e & a 4 e & a
|--------|----------------|------------------------1415---|
|--------|0---------------|17--171417------17-----------17|
|--------|0---------------|-------------------------------|
|--------|0---------------|-------------------------------|
|--------|----------------|-------------------------------|
|23202320|3---------------|-------------------------------|
  hpp hpp(hold note for bar)         ~~~~~

 1  e  &  a  2 e & a 3 e & a 4 e & a
|14----------------------------------|
|--17--1417141514--14--1415----------|
|----------------16--16----1614--1614|
|------------------------------------|
|------------------------------------|
|------------------------------------|
       p h p h p                   p

 1 e & a 2  e  &   a   3  e  &   a   4 e & a 1e&a2e&a3 e & a 4 e & a
|-------------------------------------------|------------------------|
|-------------------------------------------|------------------------|
|16141314131413--13-------------------------|----------------11111111|
|--------------16--1614131413--13-----------|----888811111111--------|
|----------------------------16--161413--13-\9999--------------------|
|-------------------------------------------|------------------------|
           h p           h p                         (11's not 1's)

 1 e & a 2 e & a 3 e & a 4 e & a  1 e & a 2 e & a 3 e & a 4 e & a
|------9 9 9 9 1212------1210129-|10------109-109\79------9\------|
|111111--------------------------|--------------------------------|
|--------------------------------|--------------------------------|
|--------------------------------|--------------------------------|
|--------------------------------|--------------------------------|
|--------------------------------|--------------------------------|
                   ~~~~~~  p h p    ~~~~~~          ~~~~~~

 1 dade  & dade  2 dade  & dade  3 dade  & dade
|-----------------------------------------------|
|--------------------------------121212--151515-|
|------------------------121212-----------------|
|----------------121212-------------------------|
|--------131313---------------------------------|
|-141414----------------------------------------|
 |__3__| |__3__| |__3__| |__3__| |__3__| |__3__|

 1 e & a 2 dade 3 e & a 4 dade 1 e & a 2 dade & 3 e & a 4 e & a
|14------141210-12------12109-|10--10--9-109\-7-9\--------------|
|-----------------------------|---------------------------------|
|-----------------------------|---------------------------------|
|-----------------------------|---------------------------------|
|-----------------------------|---------------------------------|
|-----------------------------|---------------------------------|
   ~~~~~~ |_3_|   ~~~~~~|_3_|          |_3_|

 1e&a2e&a3e&a4e&a 1dade2dade3e&a4e&a 1e&a2dade3dade4dade
|----------------|75---5------------|-------------------|
|------------5-9-|---9--7-9-5-------|-------------------|
|--------6-9-----|------------------|---------------6-9-|
|------7---------|------------9-6---|--------------7----|
|----7-----------|----------------7-|5---5-------7------|
|5-9-------------|------------------|--9--7-9-59--------|
                  |_3_||_3_|             |_3_||_3_||_3_|

 1e&a2dade 1e&a2e&a3e&a4e&a 1dade2dade3e&a4dade 1e&a2e&a3e&a4e&a
|---------|----------------|-------------------|----------------|
|8---86-5-|6---------------|----------6---65-3-|5---------------|
|---------|--7-------------|------4-7----------|--5-------------|
|---------|----7-----------|-----5-------------|----5-2---------|
|---------|------8-5-------|---5---------------|--------3-------|
|---------|----------8-7-5-|37-----------------|----------5-3-1-|
     |_3_|                  |_3_||_3_|    |_3_|

 1e&a2e&a3e&a4e&a5e&a      1e&a2e&a3e&a4e&a
|--------------------|    |----------------|
|--------------------|    |2---------------|
|----3---------------|    |2---------------|
|----3---------------|    |2---------------|
|----1---------------|    |0---------------|
|0-------------------|    |----------------|
(pick chord through bar)(hold note through bar)

 1e&a2e&a3e&a4e&a 1e&a2e&a3e&a4e&a 1e&a2e&a
|----------------|----565656565656|56565656|
|----------------|5656------------|--------|
|------------6767|----------------|--------|
|--------7878----|----------------|--------|
|----7878--------|----------------|--------|
|5656------------|----------------|--------|
  hph hph hph hph  hph hphphphphph phphphph

 1 dade & dade 2 dade & dade 3 dade & dade 4 dade & dade
|-------------------------------------------------------|
|------------------------------------------131313-131515|
|----------------------------121212-121414--------------|
|--------------121212-121414----------------------------|
|121212-121414------------------------------------------|
|-------------------------------------------------------|
 |_3__| |_3__| |_3__| |_3__| |_3__| |_3__| |_3__| |_3__|

 1 dade & dade 2 e & a 3 e & a 4 e & a  1e&a2e&a3e&a4e&a
|121212-121515-1512--15----------------|x\--------------|
|--------------------------------------|x\--------------|
|--------------------------------------|--------x\------|
|--------------------------------------|--------x\------|
|--------------------------------------|----------------|
|--------------------------------------|----------------|
 |_3__| |_3__|   p

 1e&a2e&a3e&a4e&a 1e&a2e&a3e&a4e&a
|----------------|----------------||
|----------------|2---------------||
|--------0-------|2---------------||
|----------------|2---------------||
|x\--------3-0---|0---------------||
|x\------------0-|----------------||
             p

and that's it, i hope you enjoyed playing this great song. if you don't get it, then 
practice more on other stuff, learn some better techniques. then come back to this, you 
should be able to get it then.
Tap to rate this tab
# A B C D E F G H I J K L M N O P Q R S T U V W X Y Z