Song name
# A B C D E F G H I J K L M N O P Q R S T U V W X Y Z

Quiet Riot - Bang Your Head tab

tabbed by:brant griner
:standard tuning:
            |==============|
            |BANG YOUR HEAD|
            |==============|
              <>< ^^ ><>
              QUIET RIOT
              <>< ^^ ><>

Note:this tab is not 100% correct but i assure you it is closest on ultimate guitar.com


          ====
          TABS
          ====

1-----------------------------|
2-----------------------------|
3-2--5--------5---5----5p3-7--|
4-2--5-5---5--5-5-5-5--5p3-7--|
5-0--3-5---5--3-5-3-5--3p3-7--|
6------3---3----3---3---------|

1-------------------------------|
2-------------------------------|
3-2--5--------5---5---x-5-5-----|
4-2--5-5---5--5-5-5-5-x-5-5-----|
5-0--3-5---5--3-5-3-5-x-5-5-----|
6------3---3----3---3-----------|


just repeat these two lines through most of the song when the other parts come in play this.

    clean(no distortion)
1----------------------------------------------------|
2----------------------------------------------------|
3-2--5--5--5--2--5--5--5-----------------------------|
4-2--3--5--3--2--3--5--3--xpickslide-----------------|
5-0--3--3--3--0--3--3--3--------------xpickslide-----|
6----------------------------------------------------|


                             (heavy distortion)
1-----------------------------------------------------------------------------|
2-----------------------------------------------------------------------------|
3-----------------------------------------------------------------------------|
4------------------------------------------------------------------hold-------|
5-5/7---------------5/7---------------7/5-----------------5/7-7/5-x-5---------|
6-3/5-0-0-0-0-0-0-0-3/5-0-0-0-0-0-0-0-5/3-0-0-0-0-0-0-0-0-3/5-5/3-x-3---------|
     |-------------|   |-------------|   |------------------------------------|
        palm mute         palm mute          palm mute

1-----------------------------|
2-----------------------------|
3-----------------------------|
4--------------------hold-----|
5-5/7--7/5--5/7-7/5-x-5-------|
6-3/5--5/3--3/5-5/3-x-3-------|


1-----------------------------|
2-----------------------------|
3-2--5--------5---5----5p3-7--|
4-2--5-5---5--5-5-5-5--5p3-7--|
5-0--3-5---5--3-5-3-5--3p3-7--|
6------3---3----3---3---------|

1-----------------------------|
2-----------------------------|
3-2--5--------5---5----5p3-7--|
4-2--5-5---5--5-5-5-5--5p3-7--|
5-0--3-5---5--3-5-3-5--3p3-7--|
6------3---3----3---3---------|


    this is that part after you hold the last note in that bit above
1|------------8-------------------7--------5----7------5-------|
2|----------------7--------7-----------------7-----5-----7--7~-|
3|-------------------------------------------------------------|
4|-------------------------------------------------------------|
5|-------------------------------------------------------------|
6|-------------------------------------------------------------|


    clean(no distortion)
1----------------------------------------------------|
2----------------------------------------------------|
3-2--5--5--5--2--5--5--5-----------------------------|
4-2--3--5--3--2--3--5--3--xpickslide-----------------|
5-0--3--3--3--0--3--3--3--------------xpickslide-----|
6----------------------------------------------------|

well that is all i got so far try the song it sounds pretty good to me.

if you don't like it then just sit there and don't play this song but if you wanna email 
on how you think it is played then feel free to email me at           brant_griner2002@yahoo.com
Tap to rate this tab
# A B C D E F G H I J K L M N O P Q R S T U V W X Y Z