Song name
# A B C D E F G H I J K L M N O P Q R S T U V W X Y Z

Quiet Riot - Trouble tab

Quiet riot 
Trouble
Randy rhoads years 
1978
Fact it was originally from quiet riot 2 
But they remade it on to the randy rhoads years 
Listen to it and you can work it out 

|------------------------|------------------------|------------------------|
|---------11-10----------|---------11-10----------|---------11-10----------|
|---------------10----10-|---------------10----10-|---------------10----10-|
|--10-10-----------10----|--10-10-----------10----|--10-10-----------10----|
|--8--8------------------|--8--8------------------|--8--8------------------|
|------------------------|------------------------|------------------------|

|------------------------|------------------------|------------------------|
|---------11-10----------|---------11-10----------|---------11-10----------|
|---------------10----10-|---------------10----10-|---------------10----10-|
|--10-10-----------10----|--10-10-----------10----|--10-10-----------10----|
|--8--8------------------|--8--8------------------|--8--8------------------|
|------------------------|------------------------|------------------------|

|----------8hb--------|-12hb—15b-15-12b-12b--|-----------------------------|
|---------------------|----------------------|-----------------------------|
|---------------------|----------------------|---------10-12b-12b-12b-10-10|
|---------------------|----------------------|---10-12---------------------|
|---------------------|----------------------|-----------------------------|
|---------------------|----------------------|-----------------------------|
Tap to rate this tab
 
# A B C D E F G H I J K L M N O P Q R S T U V W X Y Z