Song name
# A B C D E F G H I J K L M N O P Q R S T U V W X Y Z

Radja - Jujur tab

Help us improve GuitareTab! Take a short survey!
TABS YANG GUE BUAT SUDAH COCOK SAMA LAGUNYA,BILA ADA SARAN KIRIM KE SHOEGHENK@PLASA.COM

|-------12-8-10-7------12-8-10----------------|
|--8-10-----------8-10------------------------|
|---------------------------------------------|
|---------------------------------------------|
|---------------------------------------------|
|---------------------------------------------|

|-------------------------7--8-7--------------|
|--10-10-8-10--10-8-10--10------10-8----------|
|---------------------------------------------|
|---------------------------------------------|
|---------------------------------------------|
|---------------------------------------------|

|-------------------------7--8-7--------------|
|--10-10-8-10--10-8-10--10------10-8----------|
|---------------------------------------------|
|---------------------------------------------|
|---------------------------------------------|
|---------------------------------------------|

|-------------------------7--8-7--------------|
|--10-10-8-10--10-8-10--10------10-8----------|
|---------------------------------------------|
|---------------------------------------------|
|---------------------------------------------|
|---------------------------------------------|

|---------------------------------------------|
|--12-12-10-12--12-10-12--12-13-12-10---------|
|---------------------------------------------|
|---------------------------------------------|
|---------------------------------------------|
|---------------------------------------------|

    
Am Dm
Duhai kekasih pujaan hatiku
G C
Apakah kau memberiku satu arti
F Bm7-5
Sedikit rasa yang bisa kumengerti
E
Bukan sumpah atau janji

 Am Dm
Buktikanlah bila ada cinta
G C
Setulus hatimu bisa menerima
F Bm7-5
Sebatas kejujuran yang kau miliki
E Am
Bukan sekedar bersama

Reff: Dm G
Jujurlah padaku bila kau tak lagi cinta
C
Tinggalkan aku
F
Bila tak mungkin bersama
Bm7-5 E
Jauhi diriku lupakanlah aku
Am
O... Ho... O... Ho...
Dm G
Jujurlah padaku bila kau tak lagi cinta
C
Tinggalkan aku
F
Bila tak mungkin bersama
Bm7-5 E
Jauhi diriku lupakanlah aku
Am
Selamanya

Int: Am F Dm G
Am Dm
Buktikanlah bila ada cinta
G C
Setulus hatimu bisa menerima
F Bm7-5
Sebatas kejujuran yang kau miliki
E Am
Bukan sekedar bersama

 INTRO
|--77777--------------------------------9999-------------------------|
|--------101010-99999-7777-5555-10101010----101010-999-999-1010-7777-|
|--------------------------------------------------------------------|
|--------------------------------------------------------------------|
|--------------------------------------------------------------------|
|--------------------------------------------------------------------|

|--------------------------------------------------------------------|
|--/1212121212-777-99999-/121212-141414-121212-141414-121212-101010--|
|--------------------------------------------------------------------|
|--------------------------------------------------------------------|
|--------------------------------------------------------------------|
|--------------------------------------------------------------------|

|--1717171717---------------------------------|
|---------------------------------------------|
|---------------------------------------------|
|---------------------------------------------|
|---------------------------------------------|
|---------------------------------------------|
	BACK TO REFF
Related for Jujur tab