Guitaretab - guitar tabs
Song name
# A B C D E F G H I J K L M N O P Q R S T U V W X Y Z

Rage Against The Machine - Bulls On Parade tab

   The other tabs on this website were O.K, but this is how you really play this song.
song is pretty easy.  I am 13 and Iíve only been playing for two weeks.  I already
this piece.

Key:
x = mute string and strum
P = pull off
h = hammer on
~ = vibrato
/ = slide up
\ = slide down
^ = bend

Intro:
   Donít let any string ring by lifting your fingers from the fret board but still
them on the strings.
e------------------------------------------|
B------------------------------------------|
G------------------------------------------|	x4
D-4----4-4----4--4-----4----4-4----4--4----|
A------------------------------------------|
E---2------2-------2-----2------2-------2--|

Wah Riff 1:
   A wah wah Pedal would sound good for the parts with this rhythm.
e|-----x-x-----x-x-x-x-x-x--|
B|-----x-x-----x-x-x-x-x-x--|
G|-----x-x-----x-x-x-x-x-x--|	x8
D|-4-4-x-x-4-4-x-x-x-x-x-x--|
A|-4-4-x-x-4-4-x-x-x-x-x-x--|
E|-2-2-x-x-2-2-x-x-x-x-x-x--|

Verse:
   Hammer onís and pull offís make it easier to play and I think it sounds better.
e|-----------------------------|-------------------|
B|-----------------------------|-------------------|
G|-----------------------------|-------------------|	x4
D|-----------------------------|-------------------|
A|--------------0---2p0--------|-------------------|
E|--0----2---------------0h2---|---2p0---0h1-------|

Chorus:
e|-----------------------------------------------------------|
B|-----------------------------------------------------------|
G|-----------------------------------------------------------|
D|------5--4-4-4---4---4--4-4-4---4--5--4-4-4---4--4-4-4-4-4-|   X4
A|-----------------------------------------------------------|
E|------3--2-2-2---2---0--2-2-2---2--3--2-2-2---2--2-2-2-0-2-|
[ Tab from: http://www.guitaretab.com/r/rage-against-the-machine/15449.html ]
Verse:
e|------------------------------|-----------------------|
B|------------------------------|-----------------------|
G|------------------------------|-----------------------|	x4
D|------------------------------|-----------------------|
A|--------------0---2--0--------|-----------------------|
E|--0----2----------------0--2--|----------2--0---0---1-|

Chorus:
e|-----------------------------------------------------------|
B|-----------------------------------------------------------|
G|-----------------------------------------------------------|
D|------5--4-4-4---4---4--4-4-4---4--5--4-4-4---4--4-4-4-4-4-|   X4
A|-----------------------------------------------------------|
E|------3--2-2-2---2---0--2-2-2---2--3--2-2-2---2--2-2-2-0-2-|

Wah Riff 2:
e|-----x-x-----x-x-x-x-x-x--|
B|-----x-x-----x-x-x-x-x-x--|
G|-----x-x-----x-x-x-x-x-x--|	x4
D|-9-9-x-x-9-9-x-x-x-x-x-x--|
A|-9-9-x-x-9-9-x-x-x-x-x-x--|
E|-7-7-x-x-7-7-x-x-x-x-x-x--|

Solo:
   You need an electric guitar for the solo to sound good. The technique Tom uses is
the kill switch scratch. Instead of doing what Tom does, you could just use your left hand
slide on the stings above the body and pickups. Slide your hand with the riff Tom uses.

Bridge:
e|-----x-x-----x-x-x-x-x-x--|
B|-----x-x-----x-x-x-x-x-x--|
G|-----x-x-----x-x-x-x-x-x--|	x8
D|-4-4-x-x-4-4-x-x-x-x-x-x--|
A|-4-4-x-x-4-4-x-x-x-x-x-x--|
E|-2-2-x-x-2-2-x-x-x-x-x-x--|

Wah Riff 1:
e|-----x-x-----x-x-x-x-x-x--|
B|-----x-x-----x-x-x-x-x-x--|
G|-----x-x-----x-x-x-x-x-x--|	x4
D|-4-4-x-x-4-4-x-x-x-x-x-x--|
A|-4-4-x-x-4-4-x-x-x-x-x-x--|
E|-2-2-x-x-2-2-x-x-x-x-x-x--|

Ending:
e|------------------------------------------|
B|------------------------------------------|
G|------------------------------------------|	x4
D|-4----4-4----4--4-----4----4-4----4--4----|
A|------------------------------------------|
E|---2------2-------2-----2------2-------2--|

   You can play the song with Rage Against the Machine on this link (copy and paste):

http://video.google.com/url?docid=-
4592755700574614551&esrc=sr11&ev=v&len=230&q=Bulls+on+parade+site%
3Avideo.google.com&srcurl=http%3A%2F%2Fvideo.google.com%2Fvideoplay%3Fdocid%3D-
4592755700574614551&vidurl=%2Fvideoplay%3Fdocid%3D-4592755700574614551%26q%
3DBulls%2Bon%2Bparade%2Bsite%253Avideo.google.com%26total%3D43%26start%3D10%26num%
3D10%26so%3D0%26type%3Dsearch%26plindex%3D0&usg=AL29H21YC5tvNrSYxe7Y5GUV473sZdAcQQ

   Give me good rates.  Rock On!
Related for Bulls On Parade tab