Song name
# A B C D E F G H I J K L M N O P Q R S T U V W X Y Z

Rains - Liar tab

----------------------------------------------------------------------------
                                   Liar
                                   Rains
----------------------------------------------------------------------------

Hello, this song was suggested to me, and so I made this. I probably wouldnít have made 
if he didnít request it, but Iím happy that I did now. This is my second favorite song 
the album Stories. I hope it is accurate. Enjoy!

Username: dkm817 (same on X box live)
Email: guitardrums@rockfan.com

Guitar 1 Rhythmic (C# G# C# F# A# D#)
Guitar 2 Lead     (C# G# C# F# A# D#)
Guitar 3 Acoustic (C# G# C# F# A# D#)

Intro

Guitar 3
D#-----------------------------------------|
A#-----------------------------------------|
F#----0----0----0----0----0----0----0----0-|
C#-----------------------------------------|
G#-3~---3~---3~---3~---5~---5~---5~---5~---|
C#-----------------------------------------|

Guitar 3
D#------------------------------------------|
A#------------------------------------------|
F#------------------------------------------|
C#----2----2----2----2----2----2----2----2--| x3
G#------------------------------------------|
C#-2~---2~---2~---2~---2~---2~---2~---2~----|

Guitar 3
D#-----------------------------------------|
A#-----------------------------------------|
F#----0----0----0----0----0----0----0----0-|
C#-----------------------------------------|
G#-3~---3~---3~---3~---5~---5~---5~---5~---|
C#-----------------------------------------|

Guitar 3
D#-----------------------------------------|
A#-----------------------------------------|
F#-----------------------------------------|
C#----2----2----2----2----2----2----2----2-|
G#-----------------------------------------|
C#-2~---2~---2~---2~---2~---2~---2~---2~---|

Guitar 3
D#-----------------------------------------|
A#-----------------------------------------|
F#----0----0----0----0----0----0----0----0-|
C#-----------------------------------------|
G#-5~---5~---5~---5~---5~---5~---5~---5~---|
C#-----------------------------------------|

Guitar 1 & 2 (Distorted)
D#----------------------------------------------|
A#----------------------------------------------|
F#----------------------------------------------|
C#----------------------x-x-x-x-x-x-x-x-x-x-x-x-|
G#----------------------x-x-x-x-x-x-x-x-x-x-x-x-|
C#----------------------x-x-x-x-x-x-x-x-x-x-x-x-|

Guitar 3
D#---------------------------------------------|
A#---------------------------------------------|
F#----0----0----0----0-------------------------|
C#---------------------------------------------|
G#-7~---7~---7~---7~---------------------------|
C#---------------------------------------------|

Chorus (x2)

Guitar 1
D#-----------------------------------------------------|
A#-----------------------------------------------------|
F#-----------------------------------------------------|
C#-2~-2~~~~~~~~~~~~~~~~~~~~~-2~-2~~~~~~~~~~~~~~~~~~~~~-|
G#-2~-2~~~~~~~~~~~~~~~~~~~~~-2~-2~~~~~~~~~~~~~~~~~~~~~-|
C#-2~-2~~~~~~~~~~~~~~~~~~~~~-2~-2~~~~~~~~~~~~~~~~~~~~~-|

Guitar 2
D#-----------------------------------------------------|
A#-----------------------------------------------------|
F#---------11-11-11-11-11-11---------11-11-11-11-11-11-|
C#-2~-2~~~-x--x--x--x--x--x--2~-2~~~-x--x--x--x--x--x--|
G#-2~-2~~~-9--9--9--9--9--9--2~-2~~~-9--9--9--9--9--9--|
C#-2~-2~~~-------------------2~-2~~~-------------------|

Guitar 1
D#-------------------------------------------|
A#-------------------------------------------|
F#-------------------------------------------|
C#-10-10-10-10-10-10-7-7-7-7-7-7-7-7-7-7-7-7-|
G#-10-10-10-10-10-10-7-7-7-7-7-7-7-7-7-7-7-7-|
C#-10-10-10-10-10-10-7-7-7-7-7-7-7-7-7-7-7-7-|

Guitar 2
D#-------------------------------------------|
A#-------------------------------------------|
F#-------------------------------------------|
C#-10-10-10-10-10-10-------------------------|
G#-10-10-10-10-10-10-------------------------|
C#-10-10-10-10-10-10-9-9-9-7-7-7-9-9-9-4-4-4-|


Guitar 1
D#-----------------------------------------------------|
A#-----------------------------------------------------|
F#-----------------------------------------------------|
C#-2~-2~~~~~~~~~~~~~~~~~~~~~-2~-2~~~~~~~~~~~~~~~~~~~~~-|
G#-2~-2~~~~~~~~~~~~~~~~~~~~~-2~-2~~~~~~~~~~~~~~~~~~~~~-|
C#-2~-2~~~~~~~~~~~~~~~~~~~~~-2~-2~~~~~~~~~~~~~~~~~~~~~-|

Guitar 2
D#-----------------------------------------------------|
A#-----------------------------------------------------|
F#---------11-11-11-11-11-11---------11-11-11-11-11-11-|
C#-2~-2~~~-x--x--x--x--x--x--2~-2~~~-x--x--x--x--x--x--|
G#-2~-2~~~-9--9--9--9--9--9--2~-2~~~-9--9--9--9--9--9--|
C#-2~-2~~~-------------------2~-2~~~-------------------|

Guitar 1
D#-------------------------------------------|
A#-------------------------------------------|
F#-------------------------------------------|
C#-10-10-10-10-10-10-7-7-7-7-7-7-7-7-7-7-7-7-|
G#-10-10-10-10-10-10-7-7-7-7-7-7-7-7-7-7-7-7-|
C#-10-10-10-10-10-10-7-7-7-7-7-7-7-7-7-7-7-7-|

Guitar 2
D#-------------------------------------------|
A#-------------------------------------------|
F#-------------------4-4-4-4-4-4-5-5-5-2-2-2-|
C#-10-10-10-10-10-10-x-x-x-x-x-x-x-x-x-x-x-x-|
G#-10-10-10-10-10-10-2-2-2-2-2-2-3-3-3-0-0-0-|
C#-10-10-10-10-10-10-------------------------|

Verse

Guitar 1 & 2
D#-----------|
A#-----------|
F#-----------|
C#-2~~~~~~~~~
G#-2~~~~~~~~~
C#-2~~~~~~~~~

Guitar 3
D#------------------------------------------|
A#------------------------------------------|
F#------------------------------------------|
C#----2----2----2----2----2----2----2----2--| x2
G#------------------------------------------|
C#-2~---2~---2~---2~---2~---2~---2~---2~----|

Guitar 2 (Clean)
D#-----------------------------------------|
A#-10~~~~~~~~~~~~~~~~~-8~~~~~~~~-7~~~~~~~~-|
F#-9~~~~~~~~~~~~~~~~~~-7~~~~~~~~-7~~~~~~~~-|
C#-0~~~~~~~~~~~~~~~~~~-0~~~~~~~~-0~~~~~~~~-|
G#-----------------------------------------|
C#-----------------------------------------|

Guitar 3
D#-----------------------------------------|
A#-----------------------------------------|
F#----0----0----0----0----0----0----0----0-|
C#-----------------------------------------|
G#-3~---3~---3~---3~---5~---5~---5~---5~---|
C#-----------------------------------------|

Guitar 2
D#--------------------
A#-8~~~~~~~~~~~~~~~~~~
F#-7~~~~~~~~~~~~~~~~~~
C#-0~~~~~~~~~~~~~~~~~~
G#--------------------|
C#--------------------|


Guitar 3
D#------------------------------------------|
A#------------------------------------------|
F#------------------------------------------|
C#----2----2----2----2----2----2----2----2--| x3
G#------------------------------------------|
C#-2~---2~---2~---2~---2~---2~---2~---2~----|

Guitar 2
D#-----------------------------------------|
A#-10~~~~~~~~~~~~~~~~~-8~~~~~~~~-7~~~~~~~~-|
F#-9~~~~~~~~~~~~~~~~~~-7~~~~~~~~-7~~~~~~~~-|
C#-0~~~~~~~~~~~~~~~~~~-0~~~~~~~~-0~~~~~~~~-|
G#-----------------------------------------|
C#-----------------------------------------|

Guitar 3
D#-----------------------------------------|
A#-----------------------------------------|
F#----0----0----0----0----0----0----0----0-|
C#-----------------------------------------|
G#-3~---3~---3~---3~---5~---5~---5~---5~---|
C#-----------------------------------------|

Guitar 2
D#--------------------
A#-8~~~~~~~~~~~~~~~~~~
F#-7~~~~~~~~~~~~~~~~~~
C#-0~~~~~~~~~~~~~~~~~~
G#--------------------|
C#--------------------|

Guitar 3
D#-----------------------------------------|
A#-----------------------------------------|
F#-----------------------------------------|
C#----2----2----2----2----2----2----2----2-|
G#-----------------------------------------|
C#-2~---2~---2~---2~---2~---2~---2~---2~---|

Guitar 2
D#----------------------------------------
A#-10~~~~~~~~~~~~~~~~~~~~~~~~~~~~~~~~~~~~~
F#-9~~~~~~~~~~~~~~~~~~~~~~~~~~~~~~~~~~~~~~
C#-0~~~~~~~~~~~~~~~~~~~~~~~~~~~~~~~~~~~~~~
G#----------------------------------------|
C#----------------------------------------|

Guitar 3
D#-----------------------------------------|
A#-----------------------------------------|
F#----0----0----0----0----0----0----0----0-|
C#-----------------------------------------|
G#-5~---5~---5~---5~---5~---5~---5~---5~---|
C#-----------------------------------------|

Guitar 2
D#----------------------------------------
A#-8~~~~~~~~~~~~~~~~~~~~~~~~~~~~~~~~~~~~~~
F#-7~~~~~~~~~~~~~~~~~~~~~~~~~~~~~~~~~~~~~~
C#-0~~~~~~~~~~~~~~~~~~~~~~~~~~~~~~~~~~~~~~
G#----------------------------------------|
C#----------------------------------------|

Guitar 3
D#-----------------------------------------|
A#-----------------------------------------|
F#----0----0----0----0----0----0----0----0-|
C#-----------------------------------------|
G#-7~---7~---7~---7~---7~---7~---7~---7~---|
C#-----------------------------------------|

Guitar 2
D#----------------------------------------
A#-7~~~~~~~~~~~~~~~~~~~~~~~~~~~~~~~~~~~~~~
F#-7~~~~~~~~~~~~~~~~~~~~~~~~~~~~~~~~~~~~~~
C#-0~~~~~~~~~~~~~~~~~~~~~~~~~~~~~~~~~~~~~~
G#----------------------------------------|
C#----------------------------------------|

Guitar 3
D#-----------------------------------------|
A#-----------------------------------------|
F#----0----0----0----0----0----0----0----0-|
C#-----------------------------------------|
G#-5~---5~---5~---5~---5~---5~---5~---5~---|
C#-----------------------------------------|

Guitar 1 & 2 (Distorted)
D#----------------------------------------------|
A#----------------------------------------------|
F#----------------------------------------------|
C#----------------------x-x-x-x-x-x-x-x-x-x-x-x-|
G#----------------------x-x-x-x-x-x-x-x-x-x-x-x-|
C#----------------------x-x-x-x-x-x-x-x-x-x-x-x-|


Guitar 3
D#---------------------------------------------|
A#---------------------------------------------|
F#----0----0----0----0-------------------------|
C#---------------------------------------------|
G#-5~---5~---5~---5~---------------------------|
C#---------------------------------------------|

Chorus (x2)

Guitar 1
D#-----------------------------------------------------|
A#-----------------------------------------------------|
F#-----------------------------------------------------|
C#-2~-2~~~~~~~~~~~~~~~~~~~~~-2~-2~~~~~~~~~~~~~~~~~~~~~-|
G#-2~-2~~~~~~~~~~~~~~~~~~~~~-2~-2~~~~~~~~~~~~~~~~~~~~~-|
C#-2~-2~~~~~~~~~~~~~~~~~~~~~-2~-2~~~~~~~~~~~~~~~~~~~~~-|

Guitar 2
D#-----------------------------------------------------|
A#-----------------------------------------------------|
F#---------11-11-11-11-11-11---------11-11-11-11-11-11-|
C#-2~-2~~~-x--x--x--x--x--x--2~-2~~~-x--x--x--x--x--x--|
G#-2~-2~~~-9--9--9--9--9--9--2~-2~~~-9--9--9--9--9--9--|
C#-2~-2~~~-------------------2~-2~~~-------------------|

Guitar 1
D#-------------------------------------------|
A#-------------------------------------------|
F#-------------------------------------------|
C#-10-10-10-10-10-10-7-7-7-7-7-7-7-7-7-7-7-7-|
G#-10-10-10-10-10-10-7-7-7-7-7-7-7-7-7-7-7-7-|
C#-10-10-10-10-10-10-7-7-7-7-7-7-7-7-7-7-7-7-|

Guitar 2
D#-------------------------------------------|
A#-------------------------------------------|
F#-------------------------------------------|
C#-10-10-10-10-10-10-------------------------|
G#-10-10-10-10-10-10-------------------------|
C#-10-10-10-10-10-10-9-9-9-7-7-7-9-9-9-4-4-4-|


Guitar 1
D#-----------------------------------------------------|
A#-----------------------------------------------------|
F#-----------------------------------------------------|
C#-2~-2~~~~~~~~~~~~~~~~~~~~~-2~-2~~~~~~~~~~~~~~~~~~~~~-|
G#-2~-2~~~~~~~~~~~~~~~~~~~~~-2~-2~~~~~~~~~~~~~~~~~~~~~-|
C#-2~-2~~~~~~~~~~~~~~~~~~~~~-2~-2~~~~~~~~~~~~~~~~~~~~~-|

Guitar 2
D#-----------------------------------------------------|
A#-----------------------------------------------------|
F#---------11-11-11-11-11-11---------11-11-11-11-11-11-|
C#-2~-2~~~-x--x--x--x--x--x--2~-2~~~-x--x--x--x--x--x--|
G#-2~-2~~~-9--9--9--9--9--9--2~-2~~~-9--9--9--9--9--9--|
C#-2~-2~~~-------------------2~-2~~~-------------------|

Guitar 1
D#-------------------------------------------|
A#-------------------------------------------|
F#-------------------------------------------|
C#-10-10-10-10-10-10-7-7-7-7-7-7-7-7-7-7-7-7-|
G#-10-10-10-10-10-10-7-7-7-7-7-7-7-7-7-7-7-7-|
C#-10-10-10-10-10-10-7-7-7-7-7-7-7-7-7-7-7-7-|

Guitar 2
D#-------------------------------------------|
A#-------------------------------------------|
F#-------------------4-4-4-4-4-4-5-5-5-2-2-2-|
C#-10-10-10-10-10-10-x-x-x-x-x-x-x-x-x-x-x-x-|
G#-10-10-10-10-10-10-2-2-2-2-2-2-3-3-3-0-0-0-|
C#-10-10-10-10-10-10-------------------------|

Interlude

Guitar 1
D#-------------------|
A#-------------------|
F#-------------------|
C#-2~~~~~~-5~~~~~~~~~
G#-2~~~~~~-5~~~~~~~~~
C#-2~~~~~~-5~~~~~~~~~

Guitar 2 (Clean, Slight Reverb and Echo)
D#------7~-7~-----------|
A#-7~-8-------8~-8-5~~~-|
F#----------------------|
C#----------------------|
G#----------------------|
C#----------------------|

Guitar 1
D#-----------------------------------------------|
A#-----------------------------------------------|
F#-5---5---5---5---5---5---5---5---5---5---5---5-|
C#-5---5---5---5---5---5---5---5---5---5---5---5-|
G#-3---3---3---3---3---3---3---3---3---3---3---3-|
C#-----------------------------------------------|
pm .   .   .   .   .   .   .   .   .   .   .   .

Guitar 1
D#-----------------------------------------------|
A#-----------------------------------------------|
F#-7---7---7---7---7---7-------------------------|
C#-7---7---7---7---7---7---2---2---2---2---5---5-|
G#-5---5---5---5---5---5---2---2---2---5---5---5-|
C#-------------------------2---2---2---5---5---5-|
pm .   .   .   .   .   .   .   .   .   .   .   .

Guitar 2
D#-7~-7------7~-7-----------7~-7~-----------|
A#------8-7~------8-7~-7~-8-------8~-8-5~~~-|
F#------------------------------------------|
C#------------------------------------------|
G#------------------------------------------|
C#------------------------------------------|

Guitar 1
D#-----------------------------------------------|
A#-----------------------------------------------|
F#-5---5---5---5---5---5---5---5---5---5---5---5-|
C#-5---5---5---5---5---5---5---5---5---5---5---5-|
G#-3---3---3---3---3---3---3---3---3---3---3---3-|
C#-----------------------------------------------|
pm .   .   .   .   .   .   .   .   .   .   .   .

Guitar 1
D#-----------------------------------------------|
A#-----------------------------------------------|
F#-7---7---7---7---7---7-------------------------|
C#-7---7---7---7---7---7---2---2---2---2---5---5-|
G#-5---5---5---5---5---5---2---2---2---5---5---5-|
C#-------------------------2---2---2---5---5---5-|
pm .   .   .   .   .   .   .   .   .   .   .   .

Guitar 2
D#-7~-7------7~-7-----------7~-7~-----------|
A#------8-7~------8-7~-7~-8-------8~-8-5~~~-|
F#------------------------------------------|
C#------------------------------------------|
G#------------------------------------------|
C#------------------------------------------|

Guitar 1
D#-----------------------------------------------|
A#-----------------------------------------------|
F#-5---5---5---5---5---5---5---5---5---5---5---5-|
C#-5---5---5---5---5---5---5---5---5---5---5---5-|
G#-3---3---3---3---3---3---3---3---3---3---3---3-|
C#-----------------------------------------------|
pm .   .   .   .   .   .   .   .   .   .   .   .

Guitar 1
D#-----------------------------------------------|
A#-----------------------------------------------|
F#-7---7---7---7---7---7-------------------------|
C#-7---7---7---7---7---7---2---2---2---2---5---5-|
G#-5---5---5---5---5---5---2---2---2---5---5---5-|
C#-------------------------2---2---2---5---5---5-|
pm .   .   .   .   .   .   .   .   .   .   .   .

Guitar 2
D#-7~-7------7~-7-----------7~-7~-----------|
A#------8-7~------8-7~-7~-8-------8~-8-5~~~-|
F#------------------------------------------|
C#------------------------------------------|
G#------------------------------------------|
C#------------------------------------------|

Guitar 1
D#-----------------------------------------------|
A#-----------------------------------------------|
F#-5---5---5---5---5---5---5---5---5---5---5---5-|
C#-5---5---5---5---5---5---5---5---5---5---5---5-|
G#-3---3---3---3---3---3---3---3---3---3---3---3-|
C#-----------------------------------------------|
pm .   .   .   .   .   .   .   .   .   .   .   .

Guitar 1 and 2 (Distorted)
D#-------------------|
A#-------------------|
F#-7~-7~---7~-7-7~-7-|
C#-7~-7~---7~-7-7~-7-|
G#-5~-5~---5~-5-5~-5-|
C#-------------------|

Chorus (x2)

Guitar 1
D#-----------------------------------------------------|
A#-----------------------------------------------------|
F#-----------------------------------------------------|
C#-2~-2~~~~~~~~~~~~~~~~~~~~~-2~-2~~~~~~~~~~~~~~~~~~~~~-|
G#-2~-2~~~~~~~~~~~~~~~~~~~~~-2~-2~~~~~~~~~~~~~~~~~~~~~-|
C#-2~-2~~~~~~~~~~~~~~~~~~~~~-2~-2~~~~~~~~~~~~~~~~~~~~~-|

Guitar 2
D#-----------------------------------------------------|
A#-----------------------------------------------------|
F#---------11-11-11-11-11-11---------11-11-11-11-11-11-|
C#-2~-2~~~-x--x--x--x--x--x--2~-2~~~-x--x--x--x--x--x--|
G#-2~-2~~~-9--9--9--9--9--9--2~-2~~~-9--9--9--9--9--9--|
C#-2~-2~~~-------------------2~-2~~~-------------------|

Guitar 1
D#-------------------------------------------|
A#-------------------------------------------|
F#-------------------------------------------|
C#-10-10-10-10-10-10-7-7-7-7-7-7-7-7-7-7-7-7-|
G#-10-10-10-10-10-10-7-7-7-7-7-7-7-7-7-7-7-7-|
C#-10-10-10-10-10-10-7-7-7-7-7-7-7-7-7-7-7-7-|

Guitar 2
D#-------------------------------------------|
A#-------------------------------------------|
F#-------------------------------------------|
C#-10-10-10-10-10-10-------------------------|
G#-10-10-10-10-10-10-------------------------|
C#-10-10-10-10-10-10-9-9-9-7-7-7-9-9-9-4-4-4-|


Guitar 1
D#-----------------------------------------------------|
A#-----------------------------------------------------|
F#-----------------------------------------------------|
C#-2~-2~~~~~~~~~~~~~~~~~~~~~-2~-2~~~~~~~~~~~~~~~~~~~~~-|
G#-2~-2~~~~~~~~~~~~~~~~~~~~~-2~-2~~~~~~~~~~~~~~~~~~~~~-|
C#-2~-2~~~~~~~~~~~~~~~~~~~~~-2~-2~~~~~~~~~~~~~~~~~~~~~-|

Guitar 2
D#-----------------------------------------------------|
A#-----------------------------------------------------|
F#---------11-11-11-11-11-11---------11-11-11-11-11-11-|
C#-2~-2~~~-x--x--x--x--x--x--2~-2~~~-x--x--x--x--x--x--|
G#-2~-2~~~-9--9--9--9--9--9--2~-2~~~-9--9--9--9--9--9--|
C#-2~-2~~~-------------------2~-2~~~-------------------|

Guitar 1
D#-------------------------------------------|
A#-------------------------------------------|
F#-------------------------------------------|
C#-10-10-10-10-10-10-7-7-7-7-7-7-7-7-7-7-7-7-|
G#-10-10-10-10-10-10-7-7-7-7-7-7-7-7-7-7-7-7-|
C#-10-10-10-10-10-10-7-7-7-7-7-7-7-7-7-7-7-7-|

Guitar 2
D#-------------------------------------------|
A#-------------------------------------------|
F#-------------------4-4-4-4-4-4-5-5-5-2-2-2-|
C#-10-10-10-10-10-10-x-x-x-x-x-x-x-x-x-x-x-x-|
G#-10-10-10-10-10-10-2-2-2-2-2-2-3-3-3-0-0-0-|
C#-10-10-10-10-10-10-------------------------|

Outro

Guitar 1
D#-------------------------------------------|
A#-------------------------------------------|
F#-------------------------------------------|
C#-2-2-2-2-2-2-2-2-2-2-2-2-2-2-2-2-2-2-2-2-2-|
G#-2-2-2-2-2-2-2-2-2-2-2-2-2-2-2-2-2-2-2-2-2-|
C#-2-2-2-2-2-2-2-2-2-2-2-2-2-2-2-2-2-2-2-2-2-|

Guitar 2 (Clean, Slight Reverb and Echo)
D#------7~-7~----------------7~-7~-----------|
A#-7~-8-------8~-8-5~~~-7~-8-------8~-8-5~~~-|
F#-------------------------------------------|
C#-------------------------------------------|
G#-------------------------------------------|
C#-------------------------------------------|

Guitar 1
D#-------------------------------------------|
A#-------------------------------------------|
F#-------------------------------------------|
C#-10-10-10-10-10-10-7-7-7-7-7-7-7-7-7-7-7-7-|
G#-10-10-10-10-10-10-7-7-7-7-7-7-7-7-7-7-7-7-|
C#-10-10-10-10-10-10-7-7-7-7-7-7-7-7-7-7-7-7-|

Guitar 2
D#------7~-7~-----------7~-7------7~-7------|
A#-7~-8-------8~-8-5~~~------8-7~------8-7~-|
F#------------------------------------------|
C#------------------------------------------|
G#------------------------------------------|
C#------------------------------------------|

Guitar 1
D#-------------------------------------------|
A#-------------------------------------------|
F#-------------------------------------------|
C#-2-2-2-2-2-2-2-2-2-2-2-2-2-2-2-2-2-2-2-2-2-|
G#-2-2-2-2-2-2-2-2-2-2-2-2-2-2-2-2-2-2-2-2-2-|
C#-2-2-2-2-2-2-2-2-2-2-2-2-2-2-2-2-2-2-2-2-2-|

Guitar 2 (Clean, Slight Reverb and Echo)
D#------7~-7~----------------7~-7~-----------|
A#-7~-8-------8~-8-5~~~-7~-8-------8~-8-5~~~-|
F#-------------------------------------------|
C#-------------------------------------------|
G#-------------------------------------------|
C#-------------------------------------------|

Guitar 1
D#-------------------------------------------|
A#-------------------------------------------|
F#-------------------------------------------|
C#-10-10-10-10-10-10-7-7-7-7-7-7-7-7-7-7-7-7-|
G#-10-10-10-10-10-10-7-7-7-7-7-7-7-7-7-7-7-7-|
C#-10-10-10-10-10-10-7-7-7-7-7-7-7-7-7-7-7-7-|

Guitar 2
D#------7~-7~-----------7~-7------7~-7------|
A#-7~-8-------8~-8-5~~~------8-7~------8-7~-|
F#------------------------------------------|
C#------------------------------------------|
G#------------------------------------------|
C#------------------------------------------|

Guitar 1 & 2 (Distorted)
D#------|
A#------|
F#------|
C#-2----|
G#-2----|
C#-2----|

Tab Legend
h  -  hammer-on
p  -  pull-off
/  -  slide up
\  -  slide down
ps/-  pickslide up
ps\-  pickslide down
~  -  let ring
pm.-  palm mute
b  -  bend
r  -  return from bend
*  -  harmonic
x  -  dead note

There you go. Good song, and hopefully good tab. Please email me if you want me to do 
tabs that havenít been made yet. Thanks, oh and one last thing... ROCK OUT!!!!
Tap to rate this tab
# A B C D E F G H I J K L M N O P Q R S T U V W X Y Z