Song name
# A B C D E F G H I J K L M N O P Q R S T U V W X Y Z

Ramblin Jack Elliott - Cigarettes Whiskey Wild Wild Women tab

Help us improve GuitareTab! Take a short survey!
Highlighted       Show chord diagrams
------------------------------------------------------------------------------ 
         Cigarettes, Whiskey  & Wild Wild Women - Ramblin Jack Elliott   
-------------------------------------------------------------------------------
Tabbed by:Travis 
Email:desolationrow@aim.com

Tuning:standard

e|-----0------2---3---------|
B|-----1------3---0---------|
G|---0------2-----0---0-----|
D|-2------0-------0--2------|
A|----------------2---------|
E|--------------3-3---------|

G                    C          G
Once I was happy and had a good wife.
                                  D
I had enough money to last me for life.
       G                       C         G
Then I met with a woman and we went on a spree.
                           D         G
She taught me to drink and smoke whiskey

G                          C          G
Cigarettes and whiskey and wild, wild women,
                                             D
They'll drive you crazy they'll drive you in-sane.
      G                      C          G
Cigar-eattes and whiskey and wild, wild women,
                                D         G
They'll drive you crazy they'll drive you insane. 

same chords....

Cigarettes are a blight on the whole human race
A man is a monkey with one in his face
Take warning, dear friend. Take warning, dear brother,
A fire on one end a fool on the other
Related for Cigarettes Whiskey Wild Wild Women tab