Song name
# A B C D E F G H I J K L M N O P Q R S T U V W X Y Z

Rammstein - Haifisch tab

----------------------------------------------------------------------------
			     Haifisch - Rammstein
----------------------------------------------------------------------------

Tabbed by: Bee-Ay
Email: Leviathan_ben@hotmail.com

Tuning: D-A-D-G-B-E

1. Im a bit disappointed of the new record.
2. This is by far one of the best songs.
3. I will probably only be tabing 2-3 songs of the new record.
4. This song is a tribute to Depeche Mode.
5. I love Depeche Mode more than every other band. So thanks, Rammstein.
6. Im glad that Rammstein went back to drop D for most songs.
7. Thanks....


Chorus:
e|------------------------------------------------|
B|------------------------------------------------|
G|------------------------------------------------|
D|-2--2--2--2--2--2--2--2--9--9--9--9--7--7--7--7-|
A|-2--2--2--2--2--2--2--2--9--9--9--9--7--7--7--7-|
E|-2--2--2--2--2--2--2--2--9--9--9--9--7--7--7--7-|

e|--------------------------------------------------|
B|--------------------------------------------------|
G|--------------------------------------------------|
D|-2--2--2--2--2--2--2--2--9--9--9--9--7--7--7--0-7-|
A|-2--2--2--2--2--2--2--2--9--9--9--9--7--7--7--0-7-|
E|-2--2--2--2--2--2--2--2--9--9--9--9--7--7--7--0-7-|


Bridge:
This is relly a bitch to hear, and is played as Barré chords:
e|--7--7--7--7-|-7--7--7--7-|-7--7--7--7-|-7--7--7--7-|
B|--8--8--8--8-|-7--7--7--7-|-7--7--7--7-|-7--7--7--7-|
G|*-9--9--9--9-|-9--9--9--9-|-8--8--8--8-|-7--7--7--7-|
D|*-9--9--9--9-|-9--9--9--9-|-9--9--9--9-|-9--9--9--9-|
A|--7--7--7--7-|-7--7--7--7-|-9--9--9--9-|-9--9--9--9-|
D|-------------|------------|------------|------------|

e|-7--7--7--7-|-7--7--7--7-|-7--7--7--7-|-5--5--5--5--|
B|-8--8--8--8-|-7--7--7--7-|-7--7--7--7-|-5--5--5--5--|
G|-9--9--9--9-|-9--9--9--9-|-7--7--7--7-|-6--6--6--6-*|
D|-9--9--9--9-|-9--9--9--9-|-9--9--9--9-|-7--7--7--7-*|
A|-7--7--7--7-|-7--7--7--7-|-9--9--9--9-|-7--7--7--7--|
D|------------|------------|------------|-------------|

3. Verse:
Also barré chords:
e|--7----7--5--5----3--0---|
B|--8----7--5--5----3--0---|
G|*-9----7--6--5----4--0-*-|
D|*-9----9--7--7----5--2-*-|
A|--7----9--7--7----5--2---|
D|---------------------2---|

Alternate Chorus (Also last chorus):
e|-------------------------------------------------|
B|-------------------------------------------------|
G|*------------------------------------------------|
D|*-2--2--2--2--2--2--2--2--9--9--9--9--7--7--7--7-|
A|--2--2--2--2--2--2--2--2--9--9--9--9--7--7--7--7-|
D|--2--2--2--2--2--2--2--2--9--9--9--9--7--7--7--7-|

e|---------------------------------------------------|
B|---------------------------------------------------|
G|--------------------------------------------------*|
D|-7--7--7--7--7--7--5--5--2--2--2--2--2--2---------*|
A|-7--7--7--7--7--7--5--5--2--2--2--2--2--2----------|
D|-7--7--7--7--7--7--5--5--2--2--2--2--2--2--2-0-2-0-|


Outro played on Spanish guitar:

e|-7-----7-----7---|-7-----7-----7---|-7-----7-----7---|--------------------|
B|---8-----8-----8-|---7-----7-----7-|---7-----7-----7-|-10-----10-----10---|
G|-----9-----9-----|-----9-----9-----|-----7-----7-----|----9------9------9-|
D|-----------------|-----------------|-----------------|------7------7------|
A|-----------------|-----------------|-----------------|--------------------|
D|-----------------|-----------------|-----------------|--------------------|

e|----------------------|--------------------|-----------------------|
B|-10------10------10---|-10------10-8-----9-|-5-----5-----5------5~-|
G|----9-------9-------9-|----9---------9-----|---4-----4------4------|
D|------10------10------|------10--------9---|-----5-----5-----------|
A|----------------------|--------------------|-----------------------|
D|----------------------|--------------------|-----------------------|

Freakin' faaaantastic.
Tap to rate this tab
# A B C D E F G H I J K L M N O P Q R S T U V W X Y Z