Guitaretab - guitar tabs
Song name
# A B C D E F G H I J K L M N O P Q R S T U V W X Y Z

Ramones - Shes The One tab

She's the one
The Ramones


Intro

-----------------------------------------------------|
-----------------------------------------------------|
12-12-12---------9-9-9-9------12-12-12--9-9-9--------|
12-12-12---------9-9-9-9------12-12-12--9-9-9--------|
10-10-10---------7-7-7-7------10-10-10--7-7-7--------|
-----------------------------------------------------|


Verse

-----------------------------------------------------|
-----------------------------------------------------|
12-12-12-12--9-9-9-9---------12-12-12-12--9-9-9-9----|
12-12-12-12--9-9-9-9---------12-12-12-12--9-9-9-9----|
10-10-10-10--7-7-7-7---------10-10-10-10--7-7-7-7----|
-----------------------------------------------------|

Chorus

---------------------------------------------------------------------------------|
---------------------------------------------------------------------------------|
---------7-7-7-7-----------7-7-7-7--12-12-12-12--9-9-9-9-----------7-7-7-7-------|
7-7-7-7--7-7-7-7--7-7-7-7--7-7-7-7--12-12-12-12--9-9-9-9--7-7-7-7--7-7-7-7-------|
7-7-7-7--5-5-5-5--7-7-7-7--5-5-5-5--10-10-10-10--7-7-7-7--7-7-7-7--5-5-5-5-------|
5-5-5-5-----------5-5-5-5---------------------------------5-5-5-5----------------|

repeat verse

repeat chorus

Fill

----------------|
----------------|
----------------|
-12-12-12-12----|
-10-10-10-10----|
----------------|

Bridge
[ Tab from: http://www.guitaretab.com/r/ramones/131843.html ]
----------------------------------------------------------------------------------|
----------------------------------------------------------------------------------|
7-7-7-7-----------9-9-9-9---------------9-9-9-9-9-9-9-9---------------------------|
7-7-7-7--7-7-7-7--9-9-9-9--9-9-9-9------9-9-9-9-9-9-9-9--7-7-7-7-7-7-7-7----------|
5-5-5-5--7-7-7-7--7-7-7-7--9-9-9-9------7-7-7-7-7-7-7-7--7-7-7-7-7-7-7-7----------|
---------5-5-5-5-----------7-7-7-7-----------------------5-5-5-5-5-5-5-5----------|

Repeat all

Repeat Verse

Outro

---------------------------------------------------------------------------------|
---------------------------------------------------------------------------------|
---------7-7-7-7-----------7-7-7-7--12-12-12-12--9-9-9-9-----------7-7-7-7-------|
7-7-7-7--7-7-7-7--7-7-7-7--7-7-7-7--12-12-12-12--9-9-9-9--7-7-7-7--7-7-7-7-------|
7-7-7-7--5-5-5-5--7-7-7-7--5-5-5-5--10-10-10-10--7-7-7-7--7-7-7-7--5-5-5-5-------|
5-5-5-5-----------5-5-5-5---------------------------------5-5-5-5----------------|

----------------------------------------|
----------------------------------------|
12-12-12-12--9-9-9-9-----------7-7-7-7--|
12-12-12-12--9-9-9-9--7-7-7-7--7-7-7-7--|
10-10-10-10--7-7-7-7--7-7-7-7--5-5-5-5--|
----------------------5-5-5-5-----------|

-------------------------------------------|
-------------------------------------------|
12-12-12-12--9-9-9-9-----------7-7-7-7-----|
12-12-12-12--9-9-9-9--7-7-7-7--7-7-7-7--12-|
10-10-10-10--7-7-7-7--7-7-7-7--5-5-5-5--12-|
----------------------5-5-5-5-----------10-|


There it is, I Watched A live video over and over again to get it right, there may be 
mistakes but i dont think so
I didnt put in the strumming cause its easy to figure out
Good luck
Related for Shes The One tab