Song name
# A B C D E F G H I J K L M N O P Q R S T U V W X Y Z

Ramones - Too Tough To Die tab

Too Tough To Die
The Ramones

Intro. Strum each 14 times*
e|-----------------|
B|-----------------|
G|-----------------|
D|---------7*---7*-|
A|---------7----7--|
E|0*-0*-0*-5-0*-5--|
Verse
e|----------------------------------------------------|
B|----------------------------------------------------|
G|7777------7777------5555------5555------------------|
D|7777-7777-7777-7777-5555-5555-5555-5555-(play twice)|
A|5555-7777-5555-7777-3333-5555-3333-5555-------------|
E|-----5555------5555------3333------3333-------------|
Bridge
e|-----|
B|-----|
G|--99-|
D|7-99-|
A|7-77-|
E|5----|

Verse

Chorus. Strum each 14 times*
e|------------|
B|------------|
G|------------|
D|7*-5*-7*-5*-|
A|7--5--7--5--|
E|5--3--5--3--|

Chorus 2. Strum each 14 times*
e|-----------------------|
B|-----------------------|
G|-----------------------|
D|---7*------------------|
A|---7-(play four times)-|
E|0*-5-------------------|

Verse
Bridge
Verse
Chorus
Chorus 2

Outro. ^=bend. Let ring*
e|-------------------------------------------------------------------------|
B|-------------------------------------------------------------------------|
G|-------------------------------------------------------------------------|
D|7*-----------------------------------------------------------------------|
A|7-777777777777777^^------------------------------------------------------|
E|5------------------------------------------------------------------------|
Tap to rate this tab
# A B C D E F G H I J K L M N O P Q R S T U V W X Y Z