Guitaretab - guitar tabs
Song name
# A B C D E F G H I J K L M N O P Q R S T U V W X Y Z

Ramones - Here Today Gone Tomorrow tab

-------------------------------------------------------------------------------
			     Here Today, Gone Tomorrow by The Ramones
-------------------------------------------------------------------------------
Tabbed by: Judasrising666
Email: Judasrising666666@sbcglobal.net

Note: This is my first tab ever.  Comments, feedback, etc. would be awesome.  I hope 
is tab is good. ^_^

Tuning: Standard

Riff 1
  Oh, oh, oh, oh, oh, oh...Well I love you...Oh, oh, oh, oh, oh, oh...
  Oh, oh, oh, oh, oh, oh,...Well it's over...Oh, oh, oh, oh, oh, oh...
e|2-2-2-2-2-2-2-2-2-2-2-2-2-2-2-2----------------------------------------------|
B|3-3-3-3-3-3-3-3-3-3-3-3-3-3-3-3----------------------------------------------|
G|2-2-2-2-2-2-2-2-2-2-2-2-2-2-2-2------------------(Repeat this sequence)------|
D|0-0-0-0-0-0-0-0-0-0-0-0-0-0-0-0-4-4-4-4-4-4-4--------------------------------|
A|--------------------------------4-4-4-4-4-4-4--------------------------------|
E|--------------------------------2-2-2-2-2-2-2--------------------------------|
  I do.....I do...
  It's true...It's true...
e|----------2-2-2-2-2--------------------------------------------------------|
B|----------3-3-3-3-3--------------------------------------------------------|
G|----------2-2-2-2-2--------------------------------------------------------|
D|2-2-2-2-2-0-0-0-0-0--------------------------------------------------------|
A|2-2-2-2-2------------------------------------------------------------------|
E|0-0-0-0-0------------------------------------------------------------------|
[ Tab from: http://www.guitaretab.com/r/ramones/25111.html ]
Riff 2
  But I told her why we just can't make it...
  I want you still, but I just can't take it...
  The time has come we oughta break it...
  And I think of times we were together...
  As time went on it seemed forever...
  But time has changed, now things are better...
e|2-2---2----2---------------------------------------------------------------|
B|3-3---3----3---------------------------------------------------------------|
G|2-2---2----2---------------------------------------------------------------|
D|0-0---0----0--2---2--4-4-4-4-4-4-4-4-4-4-4---------------------------------|
A|--------------2---2--4-4-4-4-4-4-4-4-4-4-4---------------------------------|
E|--------------0---0--2-2-2-2-2-2-2-2-2-2-2---------------------------------|

Riff 3
  Someone had to pay the price...
e|---------------------------------------------------------------------------|
B|---------------------------------------------------------------------------|
G|---------------------------------------------------------------------------|
D|2---------------------4----------------------------------------------------|
A|2---------------------4----------------------------------------------------|
E|0---------------------2----------------------------------------------------|

Solo
e|---------------------------------------------------------------------------|
B|333333333333/777777777777-333333333333/77777\55555\333333333333333---------|
G|---------------------------------------------------------------------------|
D|---------------------------------------------------------------------------|
A|---------------------------------------------------------------------------|
E|---------------------------------------------------------------------------|

Song Structure
Riff 1 2x
Riff 2 3x
Riff 3
Riff 1 2x
Riff 2 3x
Riff 3
Solo
Riff 2 5x
Riff 3


| /  slide up
| \  slide down
| h  hammer-on
| p  pull-off
| ~  vibrato
| +  harmonic
| x  Mute note
===============================================================================
Related for Here Today Gone Tomorrow tab