Song name
# A B C D E F G H I J K L M N O P Q R S T U V W X Y Z

Ramones - Lifes A Gas tab

Help us improve GuitareTab! Take a short survey!
Tuning:Standard

  The only thing that might be wrong with this is the rhythm, other than that it should 
close to perfect.

Intro
e|---------------------------------------------------------------------------|
B|---------------------------------------------------------------------------|
G|---------------------------------------------------------------------------|
D|-5555555599997777555555777777----------------------------------------------|
A|-5555555577775555333333555555----------------------------------------------|
E|-3333222277775555333333555555----------------------------------------------|
Pre verse
e|---------------------------------------------------------------------------|
B|---------------------------------------------------------------------------|
G|---------------------------------------------------------------------------|
D|-5555555577777777----------------------------------------------------------|
A|-3333333355555555----------------------------------------------------------|
E|-3333333355555555----------------------------------------------------------|
verse
e|---------------------------------------------------------------------------|
B|---------------------------------------------------------------------------|
G|---------------------------------------------------------------------------|
D|-5555555222222255555552222222101010999977775555-7--------------------------|
A|-5555555222222255555552222222101010999977775555-5(20x)---------------------|
E|-33333330000000333333300000008-8-8-777755553333-5--------------------------|
chorus
e|---------------------------------------------------------------------------|
B|---------------------------------------------------------------------------|
G|---------------------------------------------------------------------------|
D|-55555555777777779999999955555555-5-----7----------------------------------|
A|-33333333555555557777777755555555-3(16x)5(16x)-----------------------------|
E|-33333333555555557777777733333333-3-----5----------------------------------|
solo
e|---------------------------------------------------------------------------|
B|---------------------------------------------------------------------------|
G|---------------------------------------------------------------------------|
D|-121212121212999999--------------------------------------------------------|
A|-101010101010777777-9---9--7--9---9--7-------------------------------------|
E|-101010101010777777---9--9-----9---9---------------------------------------|

Please leave corrections or comments.
Related for Lifes A Gas tab