Song name
# A B C D E F G H I J K L M N O P Q R S T U V W X Y Z

Ramones - Time Bomb tab

Intro
E-8-6-3-6-8-6-3-6-8-6-3-6-8-6-3-6-|
B-8-6-3-6-8-6-3-6-8-6-3-6-8-6-3-6-|
G---------------------------------|
D---------------------------------|
A---------------------------------|
E---------------------------------|

Verse                           x4
E---------------------------------|
B---------------------------------|
G-5-5-5-5-5-5-5-5-----------------|
D-5-5-5-5-5-5-5-5-3-3-3-3-5-5-5-5-|
A-3-3-3-3-3-3-3-3-3-3-3-3-5-5-5-5-|
E-----------------1-1-1-1-3-3-3-3-|

Chorus        x4
E---------------|-8-8-8-8-6-6-6-6-3-3-3-3-3-3-3-3-|
B---------------|-8-8-8-8-6-6-6-6-3-3-3-3-3-3-3-3-|
G-5-5-5-5-------|---------------------------------|
D-5-5-5-5-3--5--|---------------------------------|
A-3-3-3-3-3--5--|---------------------------------|
E---------1--3--|---------------------------------|

Verse                           x4
E---------------------------------|
B---------------------------------|
G-5-5-5-5-5-5-5-5-----------------|
D-5-5-5-5-5-5-5-5-3-3-3-3-5-5-5-5-|
A-3-3-3-3-3-3-3-3-3-3-3-3-5-5-5-5-|
E-----------------1-1-1-1-3-3-3-3-|

Chorus        x4
E---------------|-8-8-8-8-6-6-6-6-3-3-3-3-3-3-3-3-|
B---------------|-8-8-8-8-6-6-6-6-3-3-3-3-3-3-3-3-|
G-5-5-5-5-------|---------------------------------|
D-5-5-5-5-3--5--|---------------------------------|
A-3-3-3-3-3--5--|---------------------------------|
E---------1--3--|---------------------------------|

Bridge          x3
E-----------------|---------|-8-6-3-6-8-6-3-6-8-6-3-6---|
B-----------------|---------|-8-6-3-6-8-6-3-6-8-6-3-6---|
G-----------------|---------|---------------------------|
D-3-3-3-3-5-5-5-5-|-3-3-3-3-|---------------------------|
A-3-3-3-3-5-5-5-5-|-3-3-3-3-|---------------------------|
E-1-1-1-1-3-3-3-3-|-1-1-1-1-|---------------------------|

Solo                 x3
E-8-8-8-8-8-8-8-8------|-8-8-8-8-8-8-8-8-8-8-8-8-8-8-8-| (keep stumming
B-8-8-8-8-8-8-8-8-4b---|-8-8-8-8-8-8-8-8-8-8-8-8-8-8-8-| something like this
G-------------------6b-|-------------------------------| till it's back into
D----------------------|-------------------------------| the verse)
A----------------------|-------------------------------|
E----------------------|-------------------------------|

Verse                           x4
E---------------------------------|
B---------------------------------|
G-5-5-5-5-5-5-5-5-----------------|
D-5-5-5-5-5-5-5-5-3-3-3-3-5-5-5-5-|
A-3-3-3-3-3-3-3-3-3-3-3-3-5-5-5-5-|
E-----------------1-1-1-1-3-3-3-3-|

Chorus        x8
E---------------|
B---------------|
G-5-5-5-5-------|
D-5-5-5-5-3--5--|
A-3-3-3-3-3--5--|
E---------1--3--|
Tap to rate this tab
 
# A B C D E F G H I J K L M N O P Q R S T U V W X Y Z