Song name
# A B C D E F G H I J K L M N O P Q R S T U V W X Y Z

Ramones - Baby I Love You tab

The other Chords for this song are a little bit wrong, and there was no other tab, so i 
tabbed it out the way i play the song. The solo is not complete, but it was all i could 
get today, when i figure out the rest, i'll put it in here.

Intro:
(G#          C#  D#    G#        C#          D#       )
e|--------------------------------------------------------------------------|
B|-13-9-13-9-66--44~---13-9-13-9-------16-16--------------------------------|
G|-------------------------------10-10-------13-15-13~----------------------|
D|--------------------------------------------------------------------------|
A|--------------------------------------------------------------------------|
E|--------------------------------------------------------------------------|

G#        C#   D#
   Have I ever told you
G#             C#       D#
   How good it feels to hold you
G#          C#   D#    G#
   It isn't easy to explain

   G#        C#          D#
e|--------------------------------------------------------------------------|
B|-13-9-13-9-------16-16----------------------------------------------------|
G|-----------10-10-------13-15-13~------------------------------------------|
D|--------------------------------------------------------------------------|
A|--------------------------------------------------------------------------|
E|--------------------------------------------------------------------------|

G#                G#m
   And though I'm really trying
C#m
   I think I may start crying
Cm                             Bbm
   My heart can't wait another day
Bbm         D#
   When you kiss me I just gotta
D#
   Kiss me I just gotta
D#                      G#
   Kiss me I just gotta say

G#        C#   D#
   Baby I love you (c'mon baby)
G#        C#   D#
   Baby I love you
G#        C#   D#
   Baby I love you
D#               G#
   I love only you

G#        C#          D#
e|--------------------------------------------------------------------------|
B|-13-9-13-9-------16-16----------------------------------------------------|
G|-----------10-10-------13-15-13~------------------------------------------|
D|--------------------------------------------------------------------------|
A|--------------------------------------------------------------------------|
E|--------------------------------------------------------------------------|

G#          C#     D#
   I can't live without you
G#             C#     D#
   I love everything about you
G#          C#          D#        G#
   I can't help it if I feel this way

G#        C#          D#
e|--------------------------------------------------------------------------|
B|-13-9-13-9-------16-16----------------------------------------------------|
G|-----------10-10-------13-15-13~------------------------------------------|
D|--------------------------------------------------------------------------|
A|--------------------------------------------------------------------------|
E|--------------------------------------------------------------------------|
G#            G#m
   Oh, I'm so glad I found you
C#m
   I want my arms around you
C#m                           Bbm
   I love to hear you call my name
D#
   Tell me that you feel
D#
   Tell me that you feel
D#                           G#
   Tell me that you feel the same
G#        C#   D#
   Baby I love you (c'mon baby)
G#        C#   D#
   Baby I love you
G#        C#   D#
   Baby I love you
D#             G#
   I love only you

Solo: Start playing on second part of the riff, and then you play the whole riff again, twice.
 |first part        |  |Second part                   |
(G#          C#  D#    G#        C#          D#       )
e|--------------------------------------------------------------------------|
B|-13-9-13-9-66--44~---13-9-13-9-------16-16--------------------------------|
G|-------------------------------10-10-------13-15-13~----------------------|
D|--------------------------------------------------------------------------|
A|--------------------------------------------------------------------------|
E|--------------------------------------------------------------------------|

G#            G#m
   Oh, I'm so glad I found you
C#m
   I want my arms around you
Cm                            Bbm
   I love to hear you call my name
   D#
   Tell me that you feel
D#
   Tell me that you feel
D#                           G#
   Tell me that you feel the same
G#        C#   D#
   Baby I love you
G#        C#   D#
   Baby I love you
G#        C#   D#
   Baby I love you
D#             G#
   I love only You!
Tap to rate this tab
# A B C D E F G H I J K L M N O P Q R S T U V W X Y Z