Guitaretab - guitar tabs
Song name
# A B C D E F G H I J K L M N O P Q R S T U V W X Y Z

Ramones - I Need Your Love tab

-------------------------------------------------------------------------------
			     "I Need Your Love," by The Ramones          
-------------------------------------------------------------------------------

Tabbed by: Judasrising666
Email: Judasrising666666@sbcglobal.net

Tuning: Standard

Intro/Ending Solo

e|--1----0------------1----0-----------1----0--------------------------------|
B|---------3--5--3--1-------3--1--3--5-------3--5--3--1----------------------|
G|------------------------------------------------------4/555-4/555-4/555----|
D|---------------------------------------------------------------------------|
A|---------------------------------------------------------------------------|
E|---------------------------------------------------------------------------|

Verse 1

e|---------------------------------------------------------------------------|
B|---------------------------------------------------------------------------|
G|-------------------------------------------------------4/555--4/555-4/555--|
D|---------------------------------------------------------------------------|
A|33333333/55555555-33333333/55555555--33333333/55555555---------------------|
E|11111111/33333333-11111111/33333333--11111111/33333333---------------------|
xxxxxxxxxxxxxxxxxxxxxxxxxxxxxxxxxxxxxxxxxxxxxxxxxxxxxxxx

Verse 2

e|---------------------------------------------------------------------------|
B|---------------------------------------------------------------------------|
G|-------------------------------------------------------5--5555555-5555555--|
D|-------------------------------------------------------5--5555555-5555555--|
A|33333333/55555555-33333333/55555555--33333333/55555555-3--3333333-3333333--|
E|11111111/33333333-11111111/33333333--11111111/33333333---------------------|
xxxxxxxxxxxxxxxxxxxxxxxxxxxxxxxxxxxxxxxxxxxxxxxxxxxxxxxx
[ Tab from: http://www.guitaretab.com/r/ramones/92495.html ]
Chorus

e|---------------------------------------------------------------------------|
B|---------------------------------------------------------------------------|
G|-------------------------------------------------------4/555--4/555-4/555--|
D|---------------------------------------------------------------------------|
A|33333333/55555555-33333333/55555555--33333333/55555555---------------------|
E|11111111/33333333-11111111/33333333--11111111/33333333---------------------|

Middle Solo (Probably off, but this is my best attempt. ^_^;;)

e|---------------------------------------------------------------------------|
B|--12~~-12~~-12~~-12-11----12~~-12~~-12~~-12-11-----------------------------|
G|----------------------12----------------------12---------------------------|
D|---------------------------------------------------------------------------|
A|---------------------------------------------------------------------------|
E|---------------------------------------------------------------------------|

Verse 3


e|---------------------------------------------------------------------------|
B|---------------------------------------------------------------------------|
G|-----------------------------------------------------5--5555555-5555555----|
D|-----------------------------------------------------5--5555555-5555555----|
A|--------55555555-33333333/55555555-33333333/55555555-3--3333333-3333333----|
E|--------33333333-11111111/33333333-11111111/33333333-----------------------|
          xxxxxxxxxxxxxxxxxxxxxxxxxxxxxxxxxxxxxxxxxxxx  

Song Structure
Intro Solo
Verse 1
Verse 2
Chorus
Verse 2
Chorus
Middle Solo
Verse 3
Chorus
Ending Solo
Chorus (Play until end)

| /  slide up
| \  slide down
| h  hammer-on
| p  pull-off
| ~  vibrato
| +  harmonic
| x  Palm mute
===============================================================================
Related for I Need Your Love tab