Song name
# A B C D E F G H I J K L M N O P Q R S T U V W X Y Z

Rancid - Who Wouldve Thought tab

who would've thought
Rancid
Main chords
  C  Em  F          some little riffs in here i cant figure out
E-0--0---1-------------------------------------------------------|
B-1--0---1-------------------------------------------------------|
G-0--0---2-------------------------------------------------------|
D-2--2---3-------------------------------------------------------|
A-3--2---0-------------------------------------------------------|
E-0--0-----------------------------------------------------------|

chorus
E-----------------------------------------------------------|
B-----------------------------------------------------------|
G-55--------------------------------------------------------|
D-55-22-3---------------------------------------------------|
A-33-22-3---------------------------------------------------|
E----00-1---------------------------------------------------|
solo
E-------------6-------------------------------------------------|
B----------7b---7b-------------/77777---------------------------|
G-5-8---8-------------8-55-858----------8-55---5----------------|
D-------------------------------------------888------6----------|
A------------------------------------------------6-8------------|
E---------------------------------------------------------------|

chorus

NA NA NA!

interlude type thing
E-----------------------------------------------------------------|
B-----------------------------------------------------------------|
G-----------------------------------------------------------------|
D-5------------3-5------------------------------------------------|
A-5--------3-5----------------------------------------------------|
E-3--3-5-6--------------------------------------------------------|
RATE!
Tap to rate this tab
 
# A B C D E F G H I J K L M N O P Q R S T U V W X Y Z