Song name
# A B C D E F G H I J K L M N O P Q R S T U V W X Y Z

Rancid - Olympia Wa tab

ive been messing with this song for a while and i finally think
i got this solo right

^=bend
/=slide
~=let ring

e]-9-9--9-9-9-9--12-12-12-12--9-9--------------------------------]
B]-9-9--9-9-9-9--11-11-11-11--9-9--------------------------------]
G]---------------------------------11-9-11-11^-11-9--------9-11--]
D]--------------------------------------------------11--11-------]
A]---------------------------------------------------------------]x2
E]---------------------------------------------------------------]



e]----------------------------------------------------------------]
B]----------------------------------------------------------------]
G]-11^-11^--11-9------------------9-11-9--12^~~~~~-12^-12^-12-10--]
D]---------------11--11-11-11-11----------------------------------]
A]----------------------------------------------------------------]
E]----------------------------------------------------------------]


e]-------------------------------------]
b]-------------------------------------]
G]-14-14-14-14-14-14-14-14-14-14/9-----]
D]-------------------------------------]
A]-------------------------------------]
E]-------------------------------------]
Tap to rate this tab
# A B C D E F G H I J K L M N O P Q R S T U V W X Y Z