Song name
# A B C D E F G H I J K L M N O P Q R S T U V W X Y Z

Rasmus - In My Life tab

Artist: The Rasmus
Song: In My Life
Album: Dead Letters
Tabbed By: LPFzCS_LMS
Tuning: Standard

This is my first tab! Its a great song from a great band and i think this is a great tab!!!

Bass Intro

e|-------------------------|
B|-------------------------|
G|-------------------------| 6x
D|-4444-444(4)-444/666(7)6-|
A|-------------------------|
E|-------------------------|

Guitar I coming in at second time:

e|---------------|---------|
B|---------------|---------|
G|-54-5--45-54-5-|-45-54-5-|
D|---------------|---------|
A|---------------|---------|
E|---------------|---------|

e|---------|---------|---------|
B|---------|---------|---------|
G|-45-54-5-|-45-54-5-|-45-54-5-|
D|---------|---------|---------|
A|---------|---------|---------|
E|---------|---------|---------|
                              And end on with:
e|---------|-----------|   e|----------|
B|---------|-----------|   B|----------|
G|-45-54-5-|-45-54-(5)-|   G|hammer on!|
D|---------|-----------|   D|----------|
A|---------|-----------|   A|---4h4h---|
E|---------|-----------|   E|---2h2h---|

Guitar II very heavy distortion

                  ...getting louder
e|---------------|-----------------|
B|---------------|-(6)(7)-(7)(6)---|
G|---------------|-----------------|
D|---------------|-----------------|
A|---------------|-----------------|
E|---------------|-----------------|

e|---------|---------|---------|
B|-76-76---|-67-76---|-76-76---|
G|---------|---------|---------|
D|---------|---------|---------|
A|---------|---------|---------|
E|---------|---------|---------|
                            And end on with:
e|---------|---------|   e|----------|
B|-67-76---|-76-76---|   B|----------|
G|---------|---------|   G|hammer on!|
D|---------|---------|   D|----------|
A|---------|---------|   A|---4h4h---|
E|---------|---------|   E|---2h2h---|

Then:    Guitar I

e|-------|---------|
B|-------|---------|
G|-------|---------| 1x
D|-------|---------|
A|-134-1-|-43--43--|
E|-------|---2---4-|

e|---------|---------|
B|---------|---------|
G|---------|---------| 4x
D|---------|---------|
A|-341-43--|-43--43--|
E|-------4-|---2---4-|

And end on with:

e|----|
B|----|
G|----|
D|----|
A|-34-|
E|----|

Guitar II
(not loud)
e|---------|
B|---------|
G|-6-------| 7x
D|-6-------|
A|-4-----4-|
E|-------2-|

-------------
Verse I
-------------

Prt. I
  Guitar II

e|------------------|---------------------------|
B|------------------|---------------------------|
G|------------------|---------------------------|
D|-2222222277777777-|-222222227777777679|12|767-|
A|------------------|---------------------------|
E|------------------|---------------------------|

e|------------------------------|
B|------------------------------|
G|------------------------------|
D|-3333333399999999777777777777-|
A|------------------------------|
E|------------------------------|

Prt. II
drums and guitar I coming in
 Guitar I
e|---------------------------------------------------------------------------------------------|
B|--------------------------------56-----------------------------------------------------------|
G|-3-3-3-3-3-3-3-3-3-3-3-3-3-3-3-3--3-3-3-3-3-3-3-3-3-3-3-3-3-3-3-3233-3-3-3233-3-3-3233-3-3-3-|
D|-3-3-3-3-3-3-3-3-3-3-3-3-3-3-3-3--3-3-3-3-3-3-3-3-3-3-3-3-3-3-3-3--3-3-3-3--3-3-3-3--3-3-3-3-|
A|-1-1-1-1-1-1-1-1-1-1-1-1-1-1-1-1--1-1-1-1-1-1-1-1-1-1-1-1-1-1-1-1--1-1-1-1--1-1-1-1--1-1-1-1-|
E|---------------------------------------------------------------------------------------------|

And end on with:

e|------|
B|------|
G|------|
D|-2222-|
A|-2222-|
E|-0000-|

-----------
Chorus
-----------

e|-------------------------|
B|-------------------------|
G|------7777-14141414-7777-|
D|-2222-7777-14141414-7777-|
A|-2222-5555-12121212-5555-|
E|-0000--------------------|

e|-------------------hammer on!|
B|-----------------------------|
G|-9999---------------7h7h7h7h-|
D|-9999-12121212-7777-7h7h7h7h-|
A|-7777-12121212-7777-5h5h5h5h-|
E|------10101010-5555----------|

e|-------------------------|
B|-------------------------|
G|------7777-14141414-7777-|
D|-2222-7777-14141414-7777-|
A|-2222-5555-12121212-5555-|
E|-0000--------------------|

e|-----------------------|
B|-----------------------|
G|-9h9h999---------------|
D|-9h9h999-12h12h121212\-|
A|-7h7h777-12h12h121212\-|
E|---------10h10h101010\-|

Then:

e|-------|---------|
B|-------|---------|
G|-------|---------| 1x
D|-------|---------|
A|-134-1-|-43--43--|
E|-------|---2---4-|

e|---------|---------|
B|---------|---------|
G|---------|---------| 3x
D|---------|---------|
A|-341-43--|-43--43--|
E|-------4-|---2---4-|

And end on with:

e|----|
B|----|
G|----|
D|----|
A|-34-|
E|----|

---------
Verse II
---------

 Guitar I
e|---------------------------------------------------------------------------------------------|
B|--------------------------------56-----------------------------------------------------------|
G|-3-3-3-3-3-3-3-3-3-3-3-3-3-3-3-3--3-3-3-3-3-3-3-3-3-3-3-3-3-3-3-3233-3-3-3233-3-3-3233-3-3-3-|
D|-3-3-3-3-3-3-3-3-3-3-3-3-3-3-3-3--3-3-3-3-3-3-3-3-3-3-3-3-3-3-3-3--3-3-3-3--3-3-3-3--3-3-3-3-|
A|-1-1-1-1-1-1-1-1-1-1-1-1-1-1-1-1--1-1-1-1-1-1-1-1-1-1-1-1-1-1-1-1--1-1-1-1--1-1-1-1--1-1-1-1-|
E|---------------------------------------------------------------------------------------------|

And end on with:

e|------|
B|------|
G|------|
D|-2222-|
A|-2222-|
E|-0000-|

-------
Chorus
-------

e|-------------------------|
B|-------------------------|
G|------7777-14141414-7777-|
D|-2222-7777-14141414-7777-|
A|-2222-5555-12121212-5555-|
E|-0000--------------------|

e|-------------------hammer on!|
B|-----------------------------|
G|-9999---------------7h7h7h7h-|
D|-9999-12121212-7777-7h7h7h7h-|
A|-7777-12121212-7777-5h5h5h5h-|
E|------10101010-5555----------|

e|-------------------------|
B|-------------------------|
G|------7777-14141414-7777-|
D|-2222-7777-14141414-7777-|
A|-2222-5555-12121212-5555-|
E|-0000--------------------|

e|-----------------------|
B|-----------------------|
G|-9h9h999---------------|
D|-9h9h999-12h12h121212\-|
A|-7h7h777-12h12h121212\-|
E|---------10h10h101010\-|

Then:

e|----------------|
B|----------------|
G|-4\-------------|
D|-4\-let-it-ring-|
A|-2\-------------|
E|----------------|

Then no guitar only bass intro in the background

Then Guitar I getting louder:
 At the beginning a bit palm muted
e|----------------------------|
B|--------hammer-on!----------|
G|----------------------------|
D|-2-2-2-2-2-2-2-2-2-2-2-2-22-|
A|-2-2-2-2-2-2-2-2-2-2-2-2-22-|
E|-0-0-0-0-0-0-0-0-0-0-0-0-00-|

Then:

e|---------------------|
B|---------------------|
G|---------------------| 4x
D|-7-77-5-55-3-33-5-55-|
A|-7-77-5-55-3-33-5-55-|
E|-5-55-3-33-1-11-3-33-|

Then:

e|---------------------|
B|---------------------|
G|---5/4--5/4--5/4--4/5| 4x
D|-7----5----3----5----|
A|-7----5----3----5----|
E|-5----3----1----3----|

Then:

e|-----------------|
B|-----------------|
G|-/555-444-222-444| 2x
D|-/555-444-222-444|
A|-/333-222-000-222|
E|-----------------|

e|----------------|
B|----------------|
G|-2-4-5-7-9-5-4-2| 1x
D|-2-4-5-7-9-5-4-2|
A|-0-2-3-5-7-3-2-0|
E|----------------|

And then the end:

e|--------------|
B|--------------|
G|-222222222222-|
D|-222222222222-|
A|-000000000000-|
E|--------------|

And that's it!!! It's my first tab. i#m from germany and i never had any guitar lessons.
i learned everything by myself but i think, this tab is right!! if you find any errors or
have questions please mail me on lpfzcs_lms@hotmail.de
Tap to rate this tab
# A B C D E F G H I J K L M N O P Q R S T U V W X Y Z