Song name
# A B C D E F G H I J K L M N O P Q R S T U V W X Y Z

Ratatat - Two tab

Help us improve GuitareTab! Take a short survey!
e|---------------------------------------------------------------------------|
B|---------------------------------------------------------------------------|
G|---------------------------------------------------------------------------|
D|---------------------------------------------------------------------------|
A|---------------------5-5-5-5-5-7-8----3-3-3-3--5-5-5-5-5-7-8-1-1-1-1-1-1---|
E|--6-6-5-5-3-3-1-1----------------------------------------------------------|

e|---------------------------------------------------------------------------|
B|---------------------------------------------------------------------------|
G|---------------------------------------------------------------------------|
D|---------------------------------------------------------------------------|
A|--5-5-5-5-5-7-8----3-3-3-3----5-5-5-5-5-7-8-1-1-1-1-1-1--------------------|
E|---------------------------------------------------------------------------|

e|---------------------------------------------------------------------------|
B|--------------------2-3-2--2-2-2-2-3-2--2-2-2-2-3-2--2-2-2-2-0-0-0-5-5-5---|
G|---------------------------------------------------------------------------|
D|---------------------------------------------------------------------------|
A|---------------------------------------------------------------------------|
E|--6-6-5-5-3-3-1-1----------------------------------------------------------|

transfer ^ to this from 5-5-5-5-5-7-8

repeat where necessary
Related for Two tab