Ratt - Morning After tab

Morning After  Intro   RATT
-------------------------------------------------------------------------------
Tabbed by:Luke Nodzo
Email:lukenodzo@yahoo.com

Tuning:Eb

eb|--------------------------------------------------------------------------------|
Bb|-10--------------------------9--------------------------------------------------|
Gb|-9---------------------------9--------------------------------------------------|
Db|-9---------------------------9--------------------------------------------------|
Ab|-7---------------------------7--------------------------------------------------|
Eb|------0--00---0--00--0-00----------0--00--0--00--0--00--------------------------|
-        PM                           PM

eb|---------------------------------------------------------------------------------|
Bb|---------------------------------------------------------------------------------|
Gb|----------7---------------6-----------------7----------------6-------------------|
Db|----------5---------------5-----------------5----------------7-------------------|
Ab|---------------------------------------------------------------------------------|
Eb|-3---33---------3--33------------5---55------------5---55---------repeat---------|
    PM                              PM
Tap to rate this tab
 
# A B C D E F G H I J K L M N O P Q R S T U V W X Y Z