Song name
# A B C D E F G H I J K L M N O P Q R S T U V W X Y Z

Raveonettes - Heart Of Stone tab

Pretty simple, really.
Took me all of ten minutes to work out by listening to the song.

E--------------------------|
B------------5-------------|
G-----6--4-6----6--4-6-4---|
D---4------------------7-4-|
A--------------------------|
E--------------------------|


E-------------------------|
B-------------------------|
G-----6--4-6-6--6---------|
D---4------------7-6-4----|
A----------------------7--|
E-------------------------|


By Chainsaw Arm.
Tap to rate this tab
# A B C D E F G H I J K L M N O P Q R S T U V W X Y Z