Song name
# A B C D E F G H I J K L M N O P Q R S T U V W X Y Z

Rebelution - Running tab

This is the first tab ive done, and i picked a tab that i cudnt find anywhere else so i 
to make it up myself and im pretty sure i got got around 90 percent of it rite, so hope 
like it. Matthew

beggining (its raggae so play all chords strumming up)

E-3--3--3]3x
B-3--3--3]
G-3--3--3]
D-5--5--5]
A--------]
E--------]

1st solo

E--15--13------13-15h-13----13-15h-13----13-15h-13----13-15h-13-------------|
B----------15------------15-----------15-----------15-----------15-16-15----|
G------------------------------------------------------------------------15-|
D---------------------------------------------------------------------------|
A---------------------------------------------------------------------------|
E---------------------------------------------------------------------------|

E---------------------15---------------------------------------------------|
B-----15-16-18------18---16--16-18-15---15-16h-15--------------------------|
G--17------------15-------------------------------17-15---------15-17p-17--|p
D--------------------------------------------------------15-17h------------|
A--------------------------------------------------------------------------|
E--------------------------------------------------------------------------|

E--------------------------------18-17-----------18-17-----------------15-|
B--------------------------------------18-15-----------18-15-16-18--18----|
G-17p-17p-17p-17p-17p-17-15-------------------15--------------------------|
D--------------------------17---------------------------------------------|
A-------------------------------------------------------------------------|
E-------------------------------------------------------------------------|

E--------------------------------------------------------------------------|
B-16-15--------------------------------------------------------------------|
G-------17-15---------15-17p-17p-17p-17p-17----15-17-17p-17p-17p-17p-17----|
D--------------15-17h-----------------------17--------------------------17-|
A--------------------------------------------------------------------------|
E--------------------------------------------------------------------------|

E--------------------------------------------15-21p]
B----------------------------------15-15-18h-------]
G-15---------------------15-15-17h-----------------]
D----15--------15-15-17h---------------------------]
A-------15-17h-------------------------------------]
E--------------------------------------------------]


Keyboard (strum up)

E-3---3---0---0---6---6---6---6]
B-3---3---1---1---8---8---8---8]
G-3---3---2---2---8---8---8---8]
D-5---5---3---3---8---8---8---8]
A------------------------------]
E------------------------------]


2nd solo

E-------------------------------------15-18-17--17-18h----------------------|
B------------------------------13-15-------------------18-------15-16-15----|
G--------15-17h-17h-17-15---------------------------------15-17----------17-|
D-15-17h------------------17------------------------------------------------|
A---------------------------------------------------------------------------|
E---------------------------------------------------------------------------|


E----------------------------------------------------------18-17-------18-|
B----18--------------------------------18p-18p-18p-18p-18--------18-15----|
G-15------------15-17p-17p-17p-17p-17-------------------------------------|
D---------15-17h----------------------------------------------------------|
A-------------------------------------------------------------------------|
E-------------------------------------------------------------------------|


E-17------------15---18-17----------18-17----------------15---------------|
B---18-15-16-18------------18-15---------18-15-16-18--18----16-15---------|
G--------------------------------15-------------------------------17-15---|
D-------------------------------------------------------------------------|
A-------------------------------------------------------------------------|
E-------------------------------------------------------------------------|

E--------------------------------------------------------------------------|
B--------------------------------------------------------------------------|
G--------15-17h-17p-17p-17p-17----15-17-17p-17p-17p-17----15-17-17p-17p-17-|p
D-15-17h-----------------------17----------------------17------------------|
A--------------------------------------------------------------------------|
E--------------------------------------------------------------------------|

E-------------]
B-------------]
G-17---15---15]
D---17----17--]
A-------------]
E-------------]
Tap to rate this tab
 
# A B C D E F G H I J K L M N O P Q R S T U V W X Y Z